Song name
# A B C D E F G H I J K L M N O P Q R S T U V W X Y Z

Ben Harper - Fight For Your Mind tab

--------------------------------------------------
--------------------------------------------------
--------------------------------------------------
-----4/5/4----------2/3/2-------------------------
--5----------5-----3---------3---2-2-2/3/4/5------
---------------------------------3----------------

repeat 2x... (You can play open on d, but I 
thought it was easier to play on 5th fret)

-------------------------------------------------------
-------------------------------------------------------
-------------------------------------------------------
-----4/5/4----------0/2--------------------------------
--5----------5-----3------3-----3/2-------2/3/2--------
-------------------------------3-------3--3---------3--

alright thanks for reading hope you fing its right.
~Ian
Tap to rate this tab
# A B C D E F G H I J K L M N O P Q R S T U V W X Y Z