Song name
# A B C D E F G H I J K L M N O P Q R S T U V W X Y Z

Ben Harper - Amen Omen tab

#----------------------------------PLEASE NOTE--------------------------------#
#This file is the author's own work and represents their interpretation of the#
#song. You may only use this file for private study, scholarship, or research.#
#-----------------------------------------------------------------------------#
#-- File created with Instab - http://www.pconline.com/~smcarey/instab.html --#
#-----------------------------------------------------------------------------#

Author/Artist: Ben Harper
Title: Amen Omen
h hammer on
p pull off

Standard Tuning

------|-----------------------------------------------------------------------|
------|-----------------------------------------------------------------------|
------|--------------x--------------------------------------------------------|
------|-10---10--10--x--x------x--x--x--x-------3---3--3----------------------|
------|-x----x---x------12-----12-12-12-12------3---3--3----------------------|
------|-12---12--12-----10h12--12-10-12-12--0-0-x---x--x--0-0h1--1-0-1-1p0-0--|
      Intro/Verse       P.M...............

--------------------------------------------------------|--|------------------|
--------------------------------------------------------|--|------------------|
--------------------------------------------------------|--|------------------|
---x---x-x---x-x--x--x--x-x--x--x-x-x---x-x--x--x--x-x--|--|------------------|
---7---7-7p5-7-8--7--5--7-7--2--2-2-2p0-2-3--2--0--2-2--|--|------------------|
-0-8---8-8---8-8--8--8--8-8--3--3-3-3---3-3--3--3--3-3--|--|------------------|


------|------------------|--|-----------------------------|-------------------|
------|------------------|--|-----------------------------|-------------------|
------|------------------|--|-----------------------------|-------------------|
------|-x---x---x---x----|2x|-x---x---x---x---x---x---x---|-------------------|
------|-15--10--10--12---|--|-15--10--10--5---15--10--12--|-------------------|
------|-13--8---10--12---|--|-13--8---10--6---13--8---10--|-------------------|
       Chorus Chords Strum    Chorus End Chords Strum
Tap to rate this tab
 
# A B C D E F G H I J K L M N O P Q R S T U V W X Y Z