Song name
# A B C D E F G H I J K L M N O P Q R S T U V W X Y Z

Ben Harper - You Found Another Lover I Lost Another Friend tab

You Found Another Lover (I Lost Another Friend)
Ben Harper with Charlie Musselwhite

Verses
                 A                 Bm      G     F#m   A
E|---------------------------------2-2-2---3-3---2-2----------|
B|---------------2-2-2-------------3-3-3---3-3---2-2---2-2-2--|
G|---------------2-2-2-------------4-4-4---4-4---2-2---2-2-2--|  
D|---------------2-2-2-------------4-4-4---5-5---4-4---2-2-2--|
A|-----0h2p0---0-0-0-0--2\4-2\4--2-2-2-2---5-5---4-4---0-0-0--|
E|-0h2-------2-----------------------------3-3---2-2----------|


Chorus
                 A                 Bm      D     Bm    A
E|---------------------------------2-2-2---2-2---2-2----------|
B|---------------2-2-2-------------3-3-3---3-3---3-3---2-2-2--|
G|---------------2-2-2-------------4-4-4---2-2---4-4---2-2-2--| 
D|---------------2-2-2-------------4-4-4---0-0---4-4---2-2-2--|
A|-----0h2p0---0-0-0-0--2\4-2\4--2-2-2-2---------2-2---0-0-0--|
E|-0h2-------2------------------------------------------------|

A               Bm
I sit here in a daze
G           F#m         A
Wishing I could change my ways
A                              Bm
And let's not pretend it isn't what it is
    G           F#m        A
Its time we both go on and live

A                 Bm
You found another lover
D           Bm     A
And I lost another friend
A                 Bm
You found another lover
D           Bm    
And I lost another
D       Bm     A
I lost another friend

A                 Bm
We've been living like it's raining
G         F#m       A
When it's just been pouring down sun
A                 Bm
We've been living as if life is over
G           F#m       A
When it has only just begun

A                 Bm
You found another lover
D         Bm       A
And I lost another friend
A                 Bm
You found another lover
D           Bm    
And I lost another
D       Bm     A
I lost another friend

Harp Solo

A               Bm
I may lie to my heart
G            F#m        A
But my heart never lies to me
A                 Bm
I'm defenseless   repentless
             G             F#m   A
And there is nothing I can do to prevent this

A                 Bm
You found another lover
D         Bm       A
And I lost another friend
A                 Bm
You found another lover
D           Bm    
And I lost another
D       Bm    
I lost another
D       Bm     A
I lost another friend
Tap to rate this tab
# A B C D E F G H I J K L M N O P Q R S T U V W X Y Z