Song name
# A B C D E F G H I J K L M N O P Q R S T U V W X Y Z

Ben Harper - Fight Outta You tab

intro:

E---------------------------------------------------------|
B------------------2--------------------------------------|
G---4-4-4-2--4-4-4---2h4-2--------------------------------|
D---2-2-2-2--2-2-2---------4---4--x-4---4-x-4--x-4---4-x--|
A-0--------------------------0-4--x-4---4-x-4--x-4---4-x--|
E------------------------------2--x-0h2-2-x-2--x-0h2-2-x--|

verse:

|---------------------------------------------------------|
|------------------2--------------------------------------|
|---4-4-4-2--4-4-4---2h4-2--------------------------------|
|---2-2-2-2--2-2-2---------4---4--x-4---4-x-4--x-4---4-x--|
|-0--------------------------0-4--x-4---4-x-4--x-4---4-x--|
|------------------------------2--x-0h2-2-x-2--x-0h2-2-x--|

chorus:

|----x----x-----------------------------------------------|
|----7----7-----------------------------------------------|
|----7----7-4--4-4-4--------------------------------------|
|----5----5-4--4-4-4-----------4--x-4---4-x-4--x-4---x----|
|-0-----0---2--2-2-2-2h4-2-----4--x-4---4-x-4--x-4---x----|
|--------------------------5-0-2--x-0h2-2-x-2--x-0h2-x----|

|----x----x-----------------------------------------------|
|----7----7-----------------------------------------------|
|----7----7-4--4-4-4--------------------------------------|
|----5----5-4--4-4-4-----------4--x-4---4-x-4--x-4---x----|
|-0-----0---2--2-2-2-2h4-2-----4--x-4---4-x-4--x-4---x----|
|--------------------------5-0-2--x-0h2-2-x-2--x-0h2-x----|

|----x----x-----------------------------------------------|
|----7----7-----------------------------------------------|
|----7----7-4--4-4-4--------------------------------------|
|----5----5-4--4-4-4-----------4--x-4---4-x-4--x-4---x----|
|-0-----0---2--2-2-2-2h4-2-----4--x-4---4-x-4--x-4---x----|
|--------------------------5-0-2--x-0h2-2-x-2--x-0h2-x----|

|----x----x-----------------------------------------------|
|----7----7-----------------------------------------------|
|----7----7-4--4-4-4------------------------1-------------|
|----5----5-4--4-4-4-----------4--x-4---4-x-2-------------|
|-0-----0---2--2-2-2-2h4-2-----4--x-4---4-x-2-------------|
|--------------------------5-0-2--x-0h2-2-x-0-------------|

outro:

|---------------------------------------------------------|
|------------------2--------------------------------------|
|---4-4-4-2--4-4-4---2h4-2--------------------------------|
|---2-2-2-2--2-2-2---------4---4--x-4---4-x-4--x-4---4-x--|
|-0--------------------------0-4--x-4---4-x-4--x-4---4-x--|
|------------------------------2--x-0h2-2-x-2--x-0h2-2-x--|

|---------------------------------------------------------|
|------------------2--------------------------------------|
|---4-4-4-2--4-4-4---2h4-2--------------------------------|
|---2-2-2-2--2-2-2---------4---4--x-4---4-x-4-------------|
|-0--------------------------0-4--x-4---4-x-4-------------|
|------------------------------2--x-0h2-2-x-2-------------|

intro   x2
verse-1 x4 
chorus  x1 (let the end ring out)
verse-2 x4
chorus  x1 (let the end ring out)
verse-3 x4
outro   x1 (let the end ring out)
Tap to rate this tab
# A B C D E F G H I J K L M N O P Q R S T U V W X Y Z