Song name
# A B C D E F G H I J K L M N O P Q R S T U V W X Y Z

Ben Harper - I Shall Not Walk Alone tab

-------------------------------------------------------------------------------
                  I Shall Not Walk Alone - Ben Harper
-------------------------------------------------------------------------------
Tabbed by: rdogg123



Tuning: Standard (capo on 5th fret) 

Intro:
e|---------------------------------|-------------------------|
B|---------------------------------|-------------------------|
G|---------------------------------|-------------------------|
D|------2-2h4--2-------------------|------2-2h4--2-----------|
A|-2h4----0------2-0h2/4--4--2\0-2-|-2h4----0------2-0-----0-|
E|---------------0--------2------0-|---------------0---0h2---|

e|-------------------|---|-----------------------------|
B|-------------------|---|-----------------------------|
G|-------------------|---|-----------------------------|
D|----------2--------|---|--------2---2h4--2-----------|
A|-2h4----------2h4--|---|-2h4--------0-------7---5p4--|
E|--------------0----|---|--------------------0--------|
   Battered and torn...   Still I can see the light.
e|-------------------|---|--------------------------------|
B|-------------------|---|--------------------------------|
G|-------------------|---|--------------------------------|
D|----------2--------|---|--------2---2h4--2h4--2---------|
A|-2h4----------2h4--|---|-2h4--------0------------4--2\0-|
E|--------------0----|---|-------------------------2------|
   Tattered and worn...    But I must kneel     to fight

Repeat that for all the verses, and the chorus is:
e|-----------------------------------|-----------------------------------|
B|-----------------------------------|-----------------------------------|
G|-----------------------------------|-----------------------------------|
D|------2--2h4--2--------------------|------2--2h4--2------------2-------|
A|-2h4-----0-------2-0h2/4--4--2\0-2-|-2h4-----0---------0--------0/2-4--|
E|-----------------0--------2------0-|-------------------0------------2--|
   When my legs no longer   carry,     and the warm wind chills my    bones...
e|------------------------------------|--------------------------|
B|------------------------------------|--------------------------|
G|------------------------------------|--------------------------|
D|------2-2h4---2---------------------|------2-2h4---2-----------|
A|-2h4----0---------2-0h2/4--4--2\0-2-|-2h4----0---------2-----0-|
E|------------------0--------2------0-|------------------0-----0-|
   I      reach for Mother   Mary,      and  I shall not walk alone.

For the interlude, just play the intro again.

| /  slide up
| \  slide down
| h  hammer-on
| p  pull-off
| ~  vibrato
| +  harmonic
| x  Mute note
===============================================================================
Tap to rate this tab
# A B C D E F G H I J K L M N O P Q R S T U V W X Y Z