Song name
# A B C D E F G H I J K L M N O P Q R S T U V W X Y Z

Ben Harper - Another Lonely Day tab

With most of what was submitted I couldn't hear the song correctly. I submit this off of 
B-man's original post - just cleaned up & tweaked ever so slightly...play along & enjoy!

Verse

e---1-1--------------------------------------------|-----|
B---3-3-------------------------6-6-6-6---1-1------|-----|
G---3-3-------3-3-(3)-(3)-(3)---7-7-7-7---2-2-----.|-----|
D---3-3-------5-5--5---5---5----7-7-7-7---3-3-----.|-3-0-|
A-1-1-1-1-0---5-5--3-h-5-p-3--5-5-5-5-5---3-3------|-----|
E-----------3-3-3--3---3---3------------1-1-1-1-3--|-----|
                       ^
    Bb       Gm    Gm(add11)    Dm        F

Chorus

e--------------------------------------------|-----|
B---8-8-8-8-------------1-1-1-1-1---1-1------|-----|
G---8-8-8-8---3-3-3-3---2-2-2-2-2---2-2-----.|-----|
D---8-8-8-8---5-5-5-5---3-3-3-3-3---3-3-3-0-.|-----|
A-6-6-6-6-6---5-5-5-5---3-3-3h5p3---3-3------|-----|
E-----------3-3-3-3-3-1-1-1-1-1-1-1-1-1------|-1-3-|

    D#        Gm        F     F6
Tap to rate this tab
# A B C D E F G H I J K L M N O P Q R S T U V W X Y Z