Song name
# A B C D E F G H I J K L M N O P Q R S T U V W X Y Z

Ben Harper - Please Me Like You Want To tab

-------------------------------------------------------------------------------
 	     Please me like you want to - Ben Harper feat. Jack Johnson
-------------------------------------------------------------------------------
This is the version played on "Last Call" with Carson Daily (you can find it at youtube)
This is the guitar part played by Ben Harper, Jack Johnson basically plays A, D and E chords

Tabbed by: christoffer
Email:

Tuning: Standard 

Intro and Chorus

e|--------------------------------------------|
B|--------------------------------------------|
G|--------------------------------------------|
D|---6h7p6-------4h5p4-----------------6h7p6--|
A|---7-----7\5-5-5----5--4-4-4h5/6/7---7----7-|
E|-0--------------------5------------0--------|

Verses

e|--------------------------------------------|
B|--------------------------------------------|
G|--------------------------------------------|
D|---6h7p6------------------------------------|
A|---7----7\5---0---4h5p4---4---4h5p4---4-----|
E|-0----------2---5-------5---5~------5-------|

Solo

e|--------------------------------------------|
B|--------------------------------------------|
G|--------------------------------------------|
D|--------------------------------------------|
A|-5/7-7-2/4-5-4/7\5-4---4-5/7\5---4-5/7\5----|
E|---------------------5---------5---------5--|
Slide to 7th fret 1st string at the end of the second repetition

| /  slide up
| \  slide down
| h  hammer-on
| p  pull-off
| ~  vibrato
| +  harmonic
| x  Mute note
===============================================================================

Structure

Intro 2x
Verse 8x
Chorus 5x
Solo 2x
Verse 10x
Chorus 7x

Lyrics:

Don't do me any favors
matter of fact why don't you
do yourself a few

your presence ain't nobody's blessing
I've got plenty of other things
I could do

oh no, not another excuse
your tired silly games
for me are just no use

and now it's plain for me to see
you're with somebody
that you don't wanna be

so won't you
please please me like you want to
not like you have to
or won't you just go on and leave me
leaving me is the least that you could do

you could have spared me
so much misery
and told me you just wanted
a friend

believe me there is a difference
when you mean it
and when you pretend

or was I just your habit
cause I know a habit
is a hard thing to break

but won't you spare me
a little mercy
there's only so much
so much that I can take

so won't you
please please me like you want to
not like you have to
or won't you just go on and leave me
leaving me is the least that you could do



Tap to rate this tab
 
# A B C D E F G H I J K L M N O P Q R S T U V W X Y Z