Song name
# A B C D E F G H I J K L M N O P Q R S T U V W X Y Z

Ben Harper - Sexual Healing Live tab

this is the first part 


e------------1-----------|
b------------1-----------|
g------------3-----------|
d-3--5--0-1--3------0----|
a-3--5--0-1--1-0h1h3-3p1-|
d-3--5--0-1-------------5|

transition into second part

e-------------------|
b-------------------|
g--------------1-3--|
d-3--5--0--3-5-----1|
a-3--5--0-----------|
d-3--5--0-----------|

second part

e-1--x-x----------|
b-1--x-x----------|
g-3--x-x-----1-3--|
d-3--0-1-3-5-----1|
a-1--0-1----------|
d----0-1----------|
Tap to rate this tab
# A B C D E F G H I J K L M N O P Q R S T U V W X Y Z