Guitaretab - guitar tabs
Song name
# A B C D E F G H I J K L M N O P Q R S T U V W X Y Z

Ben Harper - Gather Round The Stone tab

Tabbed by Dan Cummings

Ben Harper - Gather Round The Stone


Intro and Chorus

e--------------------------------------|
B----1-1----1-1----1-1-------1-1-------|
G----2-2----2-2----2-2-------2-2-------|
D----2-2----2-2----2-2-------2-2-------|
A--0------3------0---------------------|
E------------------------0h3-----------|


e----------------------------|
B----1-1------------1--1-----|
G----2-2------------2--2-----|
D----2-2-----0-0h2--2--2-----|
A--0------3------------------|
E----------------------------|


e--------------------------------------|
B----1-1----1-1----1-1-------1-1-------|
G----2-2----2-2----2-2-------2-2-------|
D----2-2----2-2----2-2-------2-2-------|
A--0------3------0---------------------|
E------------------------0h3-----------|

[ Tab from: http://www.guitaretab.com/b/ben-harper/71267.html ]
e-----------------------------|
B----1-1-------------1--1-----|
G----2-2-------------2--2-----|
D----2-2--0h2p0------2--2-----|
A--0------------3p0-----------|
E-----------------------------|

VERSES


e--------------------------------------|
B----1-1----1-1----1-1-------1-1-------|
G----2-2----2-2----2-2-------2-2-------|
D----2-2----2-2----2-2-------2-2-------|
A--0------3------0---------------------|
E------------------------0h3-----------|
 Youre too young to know
e----------------------------|
B----1-1------------1--1-----|
G----2-2------------2--2-----|
D----2-2-----0-0h2--2--2-----|
A--0------3------------------|
E----------------------------|
   that you're too young to go


            C              G
Theres no freedom to be found
       F      (C)       Am
Lying face up on the ground


During the solo you can mess around w/ Am pentatonic scale and it sounds good. Too lazy 
try to figure it out right now.
Related for Gather Round The Stone tab
×
Best way to learn
"Gather Round The Stone"