Song name
# A B C D E F G H I J K L M N O P Q R S T U V W X Y Z

Ben Harper - Sweet Nothing Serenade tab

Help us improve GuitareTab! Take a short survey!
I spent a lot of time looking for tabs from Ben's new album, "Both Sides of the Gun". If 
have a slide guitar or are simply interested in slide, this song is for you. Its not 
entire song, but if you know this you'll easily be able to figure out the rest. BEN RULES!

Note: put the slide on you pinky so you can hit the non-slide notes more easily

|------------------------------|
|--------------5h7-7-----------|
|---5/7-7-7-7--------7/6-4/2---|
|------------------------------|
|------------------------------|
|------------------------------|

|---------------------------------|
|--8/7---------------5h7-7--------|
|------7?5/7-7-7-7---------7/6/2--|
|---------------------------------|
|---------------------------------|
|---------------------------------|

|---------------------------------|
|--8h7----8/7-------6/5-----------|
|------7------7-7-7-----9/10-9-7--|
|---------------------------------|
|---------------------------------|
|---------------------------------|

|--------------------------------------------------|
|--------------------------------------5h7-7-------|
|----------2-----7--6-------6-7-7-6-7---------7/6--|
|--8h7--4------------7----7------------------------|
|--------------------------------------------------|
|--------------------------------------------------|

|----------------------------------------------|
|----------6-7-----6-7-----6-7---5h7-7---------|
|--7-7---7-------7-------7--------------7/6/2--|
|----------------------------------------------|
|----------------------------------------------|
|----------------------------------------------|

|-----------------------------------------|
|-7/8-7-----8b--7----------5--------------|
|-------7---------7-7-7--7----10b?9b--7---|
|-----------------------------------------|
|-----------------------------------------|
|-----------------------------------------|

|---------------------------------|
|---------------------------------|
|--7-6-4--2--2-----7-6-4--2---2---|
|--------------4-------------4--4-|
|---------------------------------|
|---------------------------------|

|---------------------------------------|
|---------------------------------------|
|--7-6-4--2--2--------------------------|
|---------------0h2-2-4-2-0----5-4-2-0--|
|---------------------------------------|
|---------------------------------------|
Related for Sweet Nothing Serenade tab