Song name
# A B C D E F G H I J K L M N O P Q R S T U V W X Y Z

Ben Harper - Opression tab

Help us improve GuitareTab! Take a short survey!
-------------------------------------------------------------------------------
			     OPRESSION  Ben Harper
-------------------------------------------------------------------------------
Tabbed by: Nick
Email:
This is a very good song, same wit all ben harper songs basically::
The other version of this tab was shit so heres a good 1
Tuning: standard E (normal)
FINGERPLUCKING (with steel string acoustic sounds the best)

Intro x2
e|---------------------------------------------------------------------------|
B|---------------------------------------------------------------------------|
G|------3-h-4---4---------3--------3----4------------------------------------|
D|------4---4---4---------4--------4----4------------------------------------|
A|-----(4)------------4-------4----------------------------------------------|
E|---------------------------------------------------------------------------|
verse
e|---------------------------------|----------------------------------------|
B|---------------------------------|----------------------------------------|
G---3-h-4---4-------3-------3---4--|----4---4------4------3---3-------------|
D|--4---4---4-------4-------4---4--|----4---4------4------4---4-------------|
A|--4-----------4-------4----------|----2-------2----(2)--4---4-------------|
E|---------------------------------|----------------------2-----------------|
Chorus  oppression I wont let you near me.. you shall learn to fear me
e|-----------------------------------------------------------------|
B|----repeat intro then --=-------------------------2--------------|
G|---------------------------------6--------------------3----------|
D|------------------------------6--------------9--------4----------|
A|--------------------------4------------------7--------4----------|
E|--------------------------------------------(0)-------2----------|

| /  slide up
|   slide down
| h  hammer-on
| p  pull-off
| ~  vibrato
| +  harmonic
| x  Mute note
Related for Opression tab