Song name
# A B C D E F G H I J K L M N O P Q R S T U V W X Y Z

Ben Harper - Happy Everafter In Your Eyes tab

-------------------------------------------------------------------------------
		  Happy Everafter In Your Eyes - Ben Harper
-------------------------------------------------------------------------------
Tabbed by:67SG

Alright, so this song is really just three different patterns that Ben adds a few
to now and then, so I'm just going to tab out the flourishes and extra and/or different notes
(). And it's originally on piano, so use effects if you want but it sounds great on an 
or really clean electric.

In 3/4 time, so just keep that in mind.
Intro:
   C
e|------|------|------|
B|------|------|------|
G|------|------|------|
D|------|------|------|
A|-1----|-1----|-1----|
E|------|------|------|

Verse:
   C       G/B          A                   or...        x3
e|------0-|-------8-7-|-5---0--|-(1p0----0)-|-(3p1p0)--|
B|--1-----|-(3)8------|--------|------(3----|----------|
G|-(0)----|-----------|--------|------------|----------|
D|--------|-----------|--------|------------|----------|
A|--3-----|--(2)------|-0------|------------|----------|
E|--------|---7-------|--------|------------|----------|
         You can play that G/B either at 7th or 2nd fret.
Chorus
  Am         G           F        C
e|---------0-|-3--1--0-|-------0-|-------------|
B|-(1)--1----|-3-------|-1-------|--1--3--1--0-|
G|--2--------|---------|----0----|--0----------|
D|-----------|---------|---------|-(2)---------|
A|--0--------|---------|---------|--3----------|
E|-----------|-3-------|-1-------|-------------|

  Am          G         F         C
e|---------0-|-3--1--0-|-------0-|-------|
B|-(1)--1----|-3-------|-1-------|-1-----|
G|--2--------|---------|----0----|-0-----|
D|-----------|---------|---------|-2-----|
A|--0--------|---------|---------|-3-----|
E|-----------|-3-------|-1-------|-------|

Bridge
   G                F          C            x 3
e|-3-------|-------|---------|-------------|
B|-3-------|-------|-1-------|-1-------1---|
G|---------|-0---0-|-2-------|-----0-------|
D|-------0-|---0---|-------3-|---2-------2-|
A|----2----|-------|----3----|-3-----3-----|
E|-3-------|-------|-1-------|-------------| then play second half of chorus

  Final verse:
   C       G/B     A    C               G/B     A     C
e|---0-3-|---8-7-|-5-0-|---1-0-|---0-3-|---8-7-|-5---|-3-1-0-|
B|-1-----|-------|-----|-------|-1-----|-------|-----|-------|
G|-------|-------|-----|-------|-------|-------|-----|-------|
D|-------|-------|-----|-------|-------|-------|-----|-------|
A|-------|-------|-----|-------|-------|-------|-----|-------|
E|-------|-------|-----|-------|-------|-------|-----|-------|

  C      G/B     A      C
e|----0-|---8-7-|-5--0-|-------|
B|-1----|-8-----|------|-3-1-0-|
G|------|-------|------|-------|
D|------|-------|------|-------|
A|-3----|-------|-0----|-------|
E|------|-7-----|------|-------|

then play the chorus once more, and you are done!


| /  slide up
| \  slide down
| h  hammer-on
| p  pull-off
| ~  vibrato
| +  harmonic
| x  Mute note
===============================================================================
Tap to rate this tab
# A B C D E F G H I J K L M N O P Q R S T U V W X Y Z