Song name
# A B C D E F G H I J K L M N O P Q R S T U V W X Y Z

Ben Harper - How Many Miles Must We March tab

-------------------------------------------------------------------------------
         	   How Many Miles Must We March - Ben Harper
-------------------------------------------------------------------------------
Tabbed by: 67SG

Nice easy to play song, for some reason no tabs for it! So have fun with this.
Intro:
e|-------------|---------------|
B|-------------|---------------|
G|-2--4--5---2-|-2-4-5-7-4-5-2-|
D|-0--0--0---0-|-0-0-0-0-0-0-0-|
A|-------------|---------------|
E|-2--3--5---2-|-2-3-5-7-3-5-2-|

Verse:
e|---------------|-------------|
B|---------------|-------------|
G|------5------4-|-----2--2--4-|
D|------0------0-|-----0--0--0-|
A|---------------|-------------|
E|-5------3------|-2------2--3-|

Chorus chords:
Bm Cm Bm Cm E F# G

| /  slide up
| \  slide down
| h  hammer-on
| p  pull-off
| ~  vibrato
| +  harmonic
| x  Mute note
===============================================================================

Tap to rate this tab
# A B C D E F G H I J K L M N O P Q R S T U V W X Y Z