Song name
# A B C D E F G H I J K L M N O P Q R S T U V W X Y Z

Ben Harper - Engraved Invitation tab

This song is from his newest album Both Sides Of The Gun
Engraved Invitation

Tuning: Standard

Intro
e----------------------------------------------------|
b---2-2-------x-x-x-----2-2-------x-x-x--------------|
g---2-2--1-1--x-x-x-----2-2--1-1--x-x-x--------------|
d---2-2--2-2--x-x-x-----2-2--2-2--x-x-x--------------|
a--------2-2-----------------2-2---------------------|
e----------------------------------------------------|

Prechorus: 
I think he quickly plays an A before entering the chorus

e------------------|
b---2-2------------|
g---2-2------------|
d---2-2------------|
a------------------|
e------------------|

Chorus
e-------------------------------------------------------------|
b---------------------------------2-x-2-x-2-2-----------------|
g---4-x-4-x-4-4--x--4-x-4-x-4-4---2-x-2-x-2-2--1-x-1-x-1-1----| 
d---4-x-4-x-4-4--x--4-x-4-x-4-4---2-x-2-x-2-2--2-x-2-x-2-2----|
a---2-x-2-x-2-2--x--2-x-2-x-2-2----------------2-x-2-x-2-2----|
e-------------------------------------------------------------|

This is pretty much all he plays for the rest 
of the song...

If anyone could give me any help with the solo 
that would be great.

Tap to rate this tab
# A B C D E F G H I J K L M N O P Q R S T U V W X Y Z