Song name
# A B C D E F G H I J K L M N O P Q R S T U V W X Y Z

Ben Harper - More Than Sorry tab

                              More Than Sorry
                                    by
                                Ben Harper

Tuning: Down 1 Step --- (low to high) DGCFAD
Although it sounds fine if you play it in standard.

Intro:


e|----------0-----------------------0----------------|
B|---1----------1---------1-------------1--------1---|
G|------0----------0----------0------------0---------|     C
D|---------------------------------------------------|
A|-3-------------------3----------3-----------3------|
E|---------------------------------------------------|

                                          Good - bye_
e|------------0----------------------0---------------|
B|---1-----------1---------1-------------1-----------|
G|------0------------0---------0-------------0-------|     Am7
D|---------------------------------------------------|
A|-0--------0------------0----------0------------0---|
E|---------------------------------------------------|


Verse:
  ____                  hasn't been so good to   me__
e|----------0-----------------------0----------------|
B|---1----------1---------1-------------1--------1---|
G|------0----------0----------0------------0---------|      C
D|---------------------------------------------------|
A|-3-------------------3----------3-----------3------|
E|---------------------------------------------------|


  ____           Stepped out in   -   to the night,__
e|------------0----------------------0---------------|
B|---1-----------1---------1-------------1-----------|
G|------0------------0---------0-------------0-------|      Am7
D|---------------------------------------------------|
A|-0--------0------------0----------0------------0---|
E|---------------------------------------------------|


  ____                     back     against       the
e|------------0----------------------0---------------|
B|---1-----------1----------1-----------1-----1------|
G|------0------------0----------0----------0---------|      C/Bb
D|---------------------------------------------------|
A|-1--------1-------------1---------1------------0---|
E|---------------------------------------------------|

  moon___                                      I saw_
e|------------0--------------------------------------|
B|---1-----------1----------1---------1--------------|
G|------0------------0----------0--------0----1------|      C/F
D|------------------------------------------------0--|
A|---------------------------------------------------|
E|-1--------1-------------1---------1-------1p0------|

  __ ten     thousand   hands         with     candle
e|----------0-----------------------0----------------|
B|---1----------1---------1-------------1--------1---|
G|------0----------0----------0------------0---------|      C
D|---------------------------------------------------|
A|-3-------------------3----------3-----------3------|
E|---------------------------------------------------|

  light____            We   a - ll think  that  we're
e|------------0----------------------0---------------|
B|---1-----------1---------1-------------1-----------|
G|------0------------0---------0-------------0-------|      Am7
D|---------------------------------------------------|
A|-0--------0------------0----------0------------0---|
E|---------------------------------------------------|

  right___              it's hard to tell,     if the
e|------------0----------------------0---------------|
B|---1-----------1----------1-----------1-----1------|
G|------0------------0----------0----------0---------|      C/Bb
D|---------------------------------------------------|
A|-1--------1-------------1---------1------------0---|
E|---------------------------------------------------|

  night is full,       of    hope     or do  -  om
e|------------0--------------------------------------|
B|---1-----------1----------1---------1--------------|
G|------0------------0----------0--------0----1------|      C/F
D|------------------------------------------------0--|
A|---------------------------------------------------|
E|-1--------1-------------1---------1-------1p0------|

Chorus:

  What   more     then    sorry,    can     I__  say_
e|----------0-----------------------0----------------|
B|---1----------1---------1-------------1--------1---|
G|------0----------0----------0------------0---------|      C
D|---------------------------------------------------|
A|-3-------------------3----------3-----------3------|
E|---------------------------------------------------|

  ___________
e|------------0----------------------0---------------|
B|---1-----------1---------1-------------1-----------|
G|------0------------0---------0-------------0-------|      Am7
D|---------------------------------------------------|
A|-0--------0------------0----------0------------0---|
E|---------------------------------------------------|


  What   more     then   sorry,    can     I__   be__
e|------------0----------------------0---------------|
B|---1-----------1----------1-----------1-----1------|
G|------0------------0----------0----------0---------|      C/Bb
D|---------------------------------------------------|
A|-1--------1-------------1---------1------------0---|
E|---------------------------------------------------|

  ___________
e|------------0--------------------------------------|
B|---1-----------1----------1---------1--------------|
G|------0------------0----------0--------0----1------|      C/F
D|------------------------------------------------0--|
A|---------------------------------------------------|
E|-1--------1-------------1---------1-------1p0------|

  before our love___                          fades
e|----------0-----------------------0----------------|
B|---1----------1---------1-------------1--------1---|
G|------0----------0----------0------------0---------|      C
D|---------------------------------------------------|
A|-3-------------------3----------3-----------3------|
E|---------------------------------------------------|

  away___________               what more than sorry_
e|------------0----------------------0---------------|
B|---1-----------1---------1-------------1-----------|
G|------0------------0---------0-------------0-------|      Am7
D|---------------------------------------------------|
A|-0--------0------------0----------0------------0---|
E|---------------------------------------------------|

  __   do you wa               -           nt    from
e|------------0----------------------0---------------|
B|---1-----------1----------1-----------1-----1------|
G|------0------------0----------0----------0---------|      C/Bb and C/F
D|---------------------------------------------------|
A|-1--------1-------------1--------------------------|
E|----------------------------------1-------------1--|

  me____

e|----------0---------------------0-----------|
B|---1----------1-----1----1---------1-----1--|
G|------0----------0----------0---------------|   C and Am7
D|--------------------------------------------|
A|-3------3--------------0------0-------0-----|
E|--------------------------------------------|


e|------------0----------------------0---------------|
B|---1-----------1----------1-----------1-----1------|
G|------0------------0----------0----------0---------|      C/Bb and C/F
D|---------------------------------------------------|
A|-1--------1-------------1--------------------------|
E|----------------------------------1-------------1--|


Repeat the verse with these lyrics:

My eyes
burn with unshed tears
my body is weak
from so many silent years
too many people say goodbye
before they say hello
step into the morning
and disappear


Repeat Chorus x2


End on repeating:

e|----------0-----------------------0----------------|
B|---1----------1---------1-------------1--------1---|
G|------0----------0----------0------------0---------|     C
D|---------------------------------------------------|
A|-3-------------------3----------3-----------3------|
E|---------------------------------------------------|

then:

e|----------0-----------------------0------------0---|
B|---1----------1---------1-------------1--------1---|
G|------0----------0----------0------------0---------|     C
D|---------------------------------------------------|
A|-3-------------------3----------3-----------3--3---|
E|---------------------------------------------------|


END
Tap to rate this tab
# A B C D E F G H I J K L M N O P Q R S T U V W X Y Z