Song name
# A B C D E F G H I J K L M N O P Q R S T U V W X Y Z

Ben Howard - Keep Your Head Up tab

Tabbed from the music video on youtube)
Standard Tuning

INTRO/VERSE
e||-------------------|-------------------|-------------------|-------------------|
A||-----------0-------|-----------0-------|----------0--------|------0-----0---0--|
G||------2------2---2-|------2------2---2-|------0-----0---0--|------0-----0---0--|
D||----5---5----------|----5---5----------|--------2-----2----|-------------------|
A||--3------------3---|--3------------3---|----2--------------|----0-----0--------|
E||-------------------|-------------------|--0----------------|--2-----3-----3----|

e||-------------------|-------------------|-------------------|-------------------|
A||-----------0-------|-----------0-------|----------0--------|------0-----0---0--|
G||------2------2---2-|------2------2---2-|------0-----0---0--|------0-----0---0--|
D||----5---5----------|----5---5----------|--------2-----2----|-------------------|
A||--3------------3---|--3------------3---|----2--------------|----0-----0--------|
E||-------------------|-------------------|--0----------------|--2-----3-----3----|

This repeats itself until just before the chorus:

BRIDGE
e||-------------------|-------------------|-------------------|-------------------|
A||-----------0-------|-----------0-------|-------------------|-------------------|
G||------2------2---2-|------2------2---2-|---2-----2-----2---|----2-----2--------|
D||----5---5----------|----5---5----------|---0-----0-----0---|----0-----0--------|
A||--3------------3---|--3------------3---|-----0-----0-----0-|------0-----0------|
E||-------------------|-------------------|-2-----2-----2-----|--2-----2-----2----|

CHORUS
e||-------------------|-------------------|-------------------|-------------------|
A||-------0-----0-----|--------3-----3----|--------0-----0----|--------0-----0----|
G||-------0-----0-----|--------0-----0----|------0-0-----0----|------0-0-----0----|  x3
D||-----2---2-----2---|------0---0-----0--|----2-----2-----2--|----2-----2-----2--|
A||---2-------2-------|----2-------2------|--3---------3------|--3---------3------|
E||-0-----------------|--3----------------|-------------------|-------------------|

e||-------------------|-------------------|-------------------|-------------------|
A||-------0-----0-----|--------3-----3----|--------3-----3----|--------3-----3----|
G||-------0-----0-----|--------0-----0----|--------0-----0----|--------0-----0----|
D||-----2---2-----2---|------0---0-----0--|------0---0-----0--|------0---0-----0--|
A||---2-------2-------|----2-------2------|----2-------2------|----2-------2------|
E||-0-----------------|--3----------------|--3----------------|--3----------------|

e||-------------------|-------------------|
A||--------0-----0----|--0----------------|
G||------0-0-----0----|--0----------------|
D||----2-----2-----2--|--2----------------|
A||--3---------3------|--3----------------|
E||-------------------|-------------------|


VERSE 2

   And i saw a friend of mine....
e||-------------------|-------------------|-------------------|-------------------|
A||-----------0-------|-----------0-------|----------0--------|------0-----0---0--|
G||------2------2---2-|------2------2---2-|------0-----0---0--|------0-----0---0--|
D||----5---5----------|----5---5----------|--------2-----2----|-------------------|
A||--3------------3---|--3------------3---|----2--------------|----0-----0--------|
E||-------------------|-------------------|--0----------------|--2-----3-----3----|

e||-------------------|-------------------|-------------------|-------------------|
A||-----------0-------|-----------0-------|----------0--------|------0-----0---0--|
G||------2------2---2-|------2------2---2-|------0-----0---0--|------0-----0---0--|
D||----5---5----------|----5---5----------|--------2-----2----|-------------------|
A||--3------------3---|--3------------3---|----2--------------|----0-----0--------|
E||-------------------|-------------------|--0----------------|--2-----3-----3----|


BRIDGE 2
e||-------------------|-------------------|-------------------|-------------------|
A||-----------0-------|-----------0-------|-------------------|-------------------|
G||------2------2---2-|------2------2---2-|---2-----2-----2---|----2-----2--------|
D||----5---5----------|----5---5----------|---0-----0-----0---|----0-----0--------|
A||--3------------3---|--3------------3---|-----0-----0-----0-|------0-----0------|
E||-------------------|-------------------|-2-----2-----2-----|--2-----2-----2----|

CHORUS 2
e||-------------------|-------------------|-------------------|-------------------|
A||-------0-----0-----|--------3-----3----|--------0-----0----|--------0-----0----|
G||-------0-----0-----|--------0-----0----|------0-0-----0----|------0-0-----0----|  x3
D||-----2---2-----2---|------0---0-----0--|----2-----2-----2--|----2-----2-----2--|
A||---2-------2-------|----2-------2------|--3---------3------|--3---------3------|
E||-0-----------------|--3----------------|-------------------|-------------------|

e||-------------------|-------------------|-------------------|-------------------|
A||-------0-----0-----|--------3-----3----|--------3-----3----|--------3-----3----|
G||-------0-----0-----|--------0-----0----|--------0-----0----|--------0-----0----|
D||-----2---2-----2---|------0---0-----0--|------0---0-----0--|------0---0-----0--|
A||---2-------2-------|----2-------2------|----2-------2------|----2-------2------|
E||-0-----------------|--3----------------|--3----------------|--3----------------|
                               'Cause i'll
e||-------------------|-------------------|
A||--------0-----0----|--------0-----0----|
G||------0-0-----0----|------0-0-----0----|
D||----2-----2-----2--|----2-----2-----2--|
A||--3---------3------|--3---------3------|
E||-------------------|-------------------|


   always             remember you the      same
e||-------------------|-------------------|-------------------|-------------------|
A||---------3---------|----------3--------|----------0--------|----------0--------|
G||-----0-----0-------|------0-----0------|------0-----0--0---|------0-----0---0--|
D||---0-----------0---|----0-----------0--|----2--------------|----2--------------|
A||-------------------|-------------------|--3-----3-----3----|--3-----3-----3----|
E||-3-----3-----3-----|--2-----2-----2----|-------------------|-------------------|

e||-------------------|-------------------|-------------------|-------------------|
A||---------3---------|----------3--------|----------3--------|----------0--------|
G||-----0-----0-------|------0-----0------|------0-----0------|------0-----0---0--|
D||---0-----------0---|----0-----------0--|----0-----------0--|----2--------------|
A||-------------------|-------------------|-------------------|--3-----3-----3----|
E||-3-----3-----3-----|--2-----2-----2----|--2-----2-----2----|-------------------|

e||-------------------|-------------------|-------------------|-------------------|
A||----------0--------|----------0--------|----------0--------|----------3--------|
G||------0-----0---0--|------0-----0---0--|------0-----0---0--|------0-----0------|
D||----2--------------|----2--------------|----2--------------|----0-----------0--|
A||--3-----3-----3----|--3-----3-----3----|--3-----3-----3----|-------------------|
E||-------------------|-------------------|-------------------|--2-----2-----2----|
                                                               Continues until chorus

CHORUS 3
e||-------------------|-------------------|-------------------|-------------------|
A||-------0-----0-----|--------3-----3----|--------0-----0----|--------0-----0----|
G||-------0-----0-----|--------0-----0----|------0-0-----0----|------0-0-----0----|  x3
D||-----2---2-----2---|------0---0-----0--|----2-----2-----2--|----2-----2-----2--|
A||---2-------2-------|----2-------2------|--3---------3------|--3---------3------|
E||-0-----------------|--3----------------|-------------------|-------------------|

e||-------------------|-------------------|-------------------|-------------------|
A||-------0-----0-----|--------3-----3----|--------3-----3----|--------3-----3----|
G||-------0-----0-----|--------0-----0----|--------0-----0----|--------0-----0----|
D||-----2---2-----2---|------0---0-----0--|------0---0-----0--|------0---0-----0--|
A||---2-------2-------|----2-------2------|----2-------2------|----2-------2------|
E||-0-----------------|--3----------------|--3----------------|--3----------------|
                               'Cause i'll
e||-------------------|-------------------|
A||--------0-----0----|--------0-----0----|
G||------0-0-----0----|------0-0-----0----|
D||----2-----2-----2--|----2-----2-----2--|
A||--3---------3------|--3---------3------|
E||-------------------|-------------------|


   always             remember you the      same
e||-------------------|-------------------|-------------------|-------------------|
A||---------3---------|----------3--------|----------0--------|----------0--------|
G||-----0-----0-------|------0-----0------|------0-----0--0---|------0-----0---0--|
D||---0-----------0---|----0-----------0--|----2--------------|----2--------------|
A||-------------------|-------------------|--3-----3-----3----|--3-----3-----3----|
E||-3-----3-----3-----|--2-----2-----2----|-------------------|-------------------|

e||-------------------|-------------------|-------------------|-------------------|
A||---------3---------|----------3--------|----------3--------|----------0--------|
G||-----0-----0-------|------0-----0------|------0-----0------|------0-----0---0--|
D||---0-----------0---|----0-----------0--|----0-----------0--|----2--------------|
A||-------------------|-------------------|-------------------|--3-----3-----3----|
E||-3-----3-----3-----|--2-----2-----2----|--2-----2-----2----|-------------------|

e||-------------------|-------------------|
A||----------0--------|--0----------------|
G||------0-----0---0--|--0----------------|
D||----2--------------|--2----------------|
A||--3-----3-----3----|--3----------------|
E||-------------------|-------------------|
Tap to rate this tab
# A B C D E F G H I J K L M N O P Q R S T U V W X Y Z