Guitaretab - guitar tabs
Song name
# A B C D E F G H I J K L M N O P Q R S T U V W X Y Z

Ben Howard - Black Flies tab

Ben Howard - Black Flies


(notes)

This tab is transcribed from the youtube clip 
Ben Howard - Black Flies live at Haldern Pop 2011


first tune to C F C G G C

then place capo on 3rd fret of every string except the first low C,
which remains open

(so when reading tabbed fret numbers for the low open C string remember
they are counted from the open string, every other string is counted
from the 3rd capo'd fret as open)

the strings should now be C Ab Eb Bb Bb eb 

some tuners will say C G# D# A# A# d# which is the same thing

I have tabbed the strumming mostly in 3's as in down/up/down for
convenience, check Ben's video for the exact rhythm

(intro)

d#|--------------------------------------------------------|
A#|--------------------------------------------------------|
A#|--------------------------------------------------------|
D#|-0----0----0-2-4-4--2p0---------------------0----0----0-|
G#|-0--0-0--0-0------------4----4----4----2--0-0--0-0--0-0-|
C |------------------------0--0----0----0------------------|



d#|--------------------------------------------------------|
A#|--------------------------------------------------------|
A#|--------------------------------------------0----0------|
D#|----2-4-4--2p0------2h4---5p4---4p2--0-0----0----0------|
G#|---------------4-----------------------0--0-0--0-0------|
C |---------------0--0-----0-----0-------------------------|



d#|--------------------------------------------------------|
A#|--------------------------------------------------------|
A#|-----------------------------------------0----0----0----|
D#|----2-4-4--2p0------2h4---2h4---2h4p2--0-0----0----0----|
G#|---------------4-------------------------0--0-0--0-0----|
C |---------------0--0-----0-----0-------------------------|



d#|--------------------------------------------------------|
A#|--------------------------------------------------------|
A#|--------------------------------------0----0----0----0--|
D#|---2-4-4--2p0------2h4---5p4---4p2--0-0----0----0----0--|
G#|--------------4-----------------------0--0-0--0-0--0-0--|
C |--------------0--0-----0-----0--------------------------|



d#|--------------------------------------------------------|
A#|--------------------------------------------------------|
A#|----0----0----0-----------------------------------------|
D#|----0----0----0-----------------------------------------|
G#|--0-0--0-0--0-0-----------------------------------------|
C |--------------------------------------------------------|



(verse)

d#|--------------------------------------------------------|
A#|--------------------------------------------------------|
A#|-------------------------------------------0----0----0--|
D#|--2-4-4--2p0-------------------------------0----0----0--|
G#|-------------4----4----4----4----4----2----0--0-0--0-0--|
C |-------------0--0----0----0----0----0-------------------|

    black flies on the windowsill, (that we are)x3 to know   


d#|--------------------------------------------------------|
A#|--------------------------------------------------------|
A#|---------------------------------0----0----0------------|
D#|--2-4-4--2p0---------------------0----0----0------------|
G#|-------------4----4----4----2----0--0-0--0-0------------|
C |-------------0--0----0----0-----------------------------|

  Winter stole summers thrill, & the rivers cracked & cold


d#|--------------------------------------------------------|
A#|--------------------------------------------------------|
A#|---------------------------------0----0----0------------|
D#|--2-4-4--2p0----------------0----0----0----0------------|
G#|-------------4----4----4-------0-0--0-0--0-0------------|
C |-------------0--0----0----0-----------------------------|

  see the sky is no mans's land, a darkened plume to stay


d#|--------------------------------------------------------|
A#|--------------------------------------------------------|
A#|---------------------------------0----0----0------------|
D#|--2-4-4--2p0---------------------0----0----0------------|
G#|-------------4----4----4----2----0--0-0--0-0------------|
C |-------------0--0----0----0-----------------------------|

 hope here needs a humble hand, not a fox found in your place


d#|--------------------------------------------------------|
A#|--------------------------------------------------------|
A#|---------------------------------0----0----0------------|
D#|--2-4-4--2p0---------------------0----0----0------------|
G#|-------------4----4----4----2--0-0--0-0--0-0------------|
C |-------------0--0----0----0-----------------------------|



d#|--------------------------------------------------------|
A#|--------------------------------------------------------|
A#|-------------------------------------0----0----0----0---|
D#|--2-4-4--2p0------2h4---5p4---4p2--0-0----0----0----0---|
G#|-------------4-----------------------0--0-0--0-0--0-0---|
C |-------------0--0-----0-----0---------------------------|



d#|--------------------------------------------------------|
A#|--------------------------------------------------------|
A#|----0----0----0----0------------------------------------|
D#|----0----0----0----0------------------------------------|
G#|--0-0--0-0--0-0--0-0------------------------------------|
C |--------------------------------------------------------|


(Chorus)

d#|--------------------------------------------------------|
A#|--------------------------------------------------------|
A#|----0------0------0------0----0------0------0------0----|
D#|----0------0------0------0------------------------------|
G#|------------------------------9------9------9------9----|
C |-12-12--12-12--12-12--12-12---10--10-10--10-10--10-10---|

           and no man is an island.....        ...this I


d#|--------------------------------------------------------|
A#|--------------------------------------------------------|
A#|--0----0----0----0----0----0----------------------------|
D#|--0----0----0----0----0----0----------------------------|
G#|--------------------------------------------------------|
C |--8--8-8--8-8--8-8--8-8--8-8----------------------------|

     know...        ...but can't you see oh


d#|--------------------------------------------------------|
A#|--------------------------------------------------------|
A#|--0------0------0------0----0------0------0------0------|
D#|--0------0------0------0--------------------------------|
G#|----------------------------9------9------9------9------|
C |--12--12-12--12-12--12-12---10--10-10--10-10--10-10-----|

          maybe you were the ocean...    ..and I was just a


d#|-------------------0-0-0--0-0-0--0-0-0--0-0-0--0-0------|
A#|-------------------0-0-0--0-0-0--0-0-0--0-0-0--0-0------|
A#|-0----0----0----0--0-0-0--0-0-0--0-0-0--0-0-0--0-0------|
D#|-0----0----0----0--0-0-0--0-0-0--0-0-0--2-4-4--0-0------|
G#|----------------------------------------0-0-0--0-4------|
C |-8--8-8--8-8--8-8--8-8-8--8-8-8--8-8-8-----------0------|

     stone..       (starts strumming here) ..black flies on the


d#|--0-0-0--0-0-0--0-0-0--0-0-0--0-0-0--0-0-0--0-0-0-------|
A#|--0-0-0--0-0-0--0-0-0--0-0-0--0-0-0--0-0-0--0-0-0-------|
A#|--0-0-0--0-0-0--0-0-0--0-0-0--0-0-0--0-0-0--0-0-0-------|
D#|--0-0-0--0-0-0--0-0-0--0-0-0--0-0-0--0-0-0--0-0-0-------|
G#|--4-4-4--4-4-4--4-4-4--4-4-4--4-4-2--2-0-0--0-0-0-------|
C |--0-0-0--0-0-0--0-0-0--0-0-0--0-0-----------------------|
[ Tab from: http://www.guitaretab.com/b/ben-howard/298632.html ]
  ..windowsill,   (that we are) x3    ...to hold


d#|-0-0-0--0-0-0--0-0-0--0-0-0--0-0-0--0-0-0--0-0-0--0-0-0-|
A#|-0-0-0--0-0-0--0-0-0--0-0-0--0-0-0--0-0-0--0-0-0--0-0-0-|
A#|-0-0-0--0-0-0--0-0-0--0-0-0--0-0-0--0-0-0--0-0-0--0-0-0-|
D#|-0-0-0--2-4-4--4-0-0--0-0-0--0-0-0--0-0-0--0-0-0--0-0-0-|
G#|-0-0-0--0-0-0--0-0-4--4-4-4--4-4-4--4-4-2--2-0-0--0-0-0-|
C |-------------------0--0-0-0--0-0-0--0-0-----------------|
  
         ..comfort came against my will, and every story must


d#|-0-0-0--0-0-0--0-0-0--0-0-0--0-0-0--0-0-0--0-0-0--0-0-0-|
A#|-0-0-0--0-0-0--0-0-0--0-0-0--0-0-0--0-0-0--0-0-0--0-0-0-|
A#|-0-0-0--0-0-0--0-0-0--0-0-0--0-0-0--0-0-0--0-0-0--0-0-0-|
D#|-0-0-0--2-4-4--4-0-0--0-0-0--0-0-0--0-0-0--0-0-0--0-0-0-|
G#|-0-0-0--0-0-0--0-0-4--4-4-4--4-4-4--4-4-2--2-0-0--0-0-0-|
C |-------------------0--0-0-0--0-0-0--0-0-----------------|

  grow old ..still i'll be a traveller, a gypsies reins 


d#|-0-0-0--0-0-0--0-0-0--0-0-0--0-0-0--0-0-0--0-0-0--0-0-0-|
A#|-0-0-0--0-0-0--0-0-0--0-0-0--0-0-0--0-0-0--0-0-0--0-0-0-|
A#|-0-0-0--0-0-0--0-0-0--0-0-0--0-0-0--0-0-0--0-0-0--0-0-0-|
D#|-0-0-0--2-4-4--4-0-0--0-0-0--0-0-0--0-0-0--0-0-0--0-0-0-|
G#|-0-0-0--0-0-0--0-0-4--4-4-4--4-4-4--4-4-2--2-0-0--0-0-0-|
C |-------------------0--0-0-0--0-0-0--0-0-----------------|

  to face ..but the road is wearier..  with that fool found


d#|-0-0-0--0-0-0--0-0-0--0-0-0--0-0-0--0-0-0--0-0-0--0-0-0-|
A#|-0-0-0--0-0-0--0-0-0--0-0-0--0-0-0--0-0-0--0-0-0--0-0-0-|
A#|-0-0-0--0-0-0--0-0-0--0-0-0--0-0-0--0-0-0--0-0-0--0-0-0-|
D#|-0-0-0--2-4-4--4-0-0--0-0-0--0-0-0--0-0-0--0-0-0--0-0-0-|
G#|-0-0-0--0-0-0--0-0-4--4-4-4--4-4-4--4-4-2--2-0-0--0-0-0-|
C |-------------------0--0-0-0--0-0-0--0-0-----------------|

 in your place..


d#|-0-0-0--0-0-0--0-0-0--0-0-0--0-0-0--0-0-0--0-0-0--0-0-0-|
A#|-0-0-0--0-0-0--0-0-0--0-0-0--0-0-0--0-0-0--0-0-0--0-0-0-|
A#|-0-0-0--0-0-0--0-0-0--0-0-0--0-0-0--0-0-0--0-0-0--0-0-0-|
D#|-0-0-0--2-4-4--4-0-0--0-0-0--0-0-0--0-0-0--0-0-0--0-0-0-|
G#|-0-0-0--0-0-0--0-0-4--4-4-4--4-4-4--4-4-2--2-0-0--0-0-0-|
C |-------------------0--0-0-0--0-0-0--0-0-----------------|




d#|---0-0-0--0-0-0--0-0-0---0--0--0---0--0--0---0--0--0----|
A#|---0-0-0--0-0-0--0-0-0---0--0--0---0--0--0---0--0--0----|
A#|---0-0-0--0-0-0--0-0-0---0--0--0---0--0--0---0--0--0----|
D#|---0-0-0--0-0-0--0-0-0---0--0--0---0--0--0---0--0--0----|
G#|---0-0-0--0-0-0--0-0------------------------------------|
C |---------------------12--12-12-12--12-12-12--12-12-12---|

                                no man is  


d#|0--0--0---0--0--0---0--0--0---0--0--0---0--0--0--0-0-0--|
A#|0--0--0---0--0--0---0--0--0---0--0--0---0--0--0--0-0-0--|
A#|0--0--0---0--0--0---0--0--0---0--0--0---0--0--0--0-0-0--|
D#|0--0--0---0--0--0---0--0--0---0--0--0---0--0--0--0-0-0--|
G#|--------------------------------------------------------|
C |12-12-10--10-10-10--10-10-10--10-10-10--10-10-8--8-8-8--|

      an island.....                     this I know...


d#|--0-0-0--0-0-0--0-0-0--0-0-0--0-0-0---0--0--0---0--0--0-|
A#|--0-0-0--0-0-0--0-0-0--0-0-0--0-0-0---0--0--0---0--0--0-|
A#|--0-0-0--0-0-0--0-0-0--0-0-0--0-0-0---0--0--0---0--0--0-|
D#|--0-0-0--0-0-0--0-0-0--0-0-0--0-0-0---0--0--0---0--0--0-|
G#|--------------------------------------------------------|
C |--8-8-8--8-8-8--8-8-8--8-8-8--8-8-12--12-12-12--12-12-12|

                ...but can't you see oh     maybe you


d#|---0--0--0---0--0--0---0--0--0---0--0--0---0--0--0------|
A#|---0--0--0---0--0--0---0--0--0---0--0--0---0--0--0------|
A#|---0--0--0---0--0--0---0--0--0---0--0--0---0--0--0------|
D#|---0--0--0---0--0--0---0--0--0---0--0--0---0--0--0------|
G#|--------------------------------------------------------|
C |---12-12-12--12-12-10--10-10-10--10-10-10--10-10-10-----|

           were the ocean...       ...and I was just a 
 

d#|--0--0--0--0-0-0--0-0-0--0-0-0--0-0-0--0-0-0--0-0-0-----|
A#|--0--0--0--0-0-0--0-0-0--0-0-0--0-0-0--0-0-0--0-0-0-----|
A#|--0--0--0--0-0-0--0-0-0--0-0-0--0-0-0--0-0-0--0-0-0-----|
D#|--0--0--0--0-0-0--0-0-0--0-0-0--0-0-0--0-0-0--0-0-0-----|
G#|--------------------------------------------------------|
C |--10-10-8--8-8-8--8-8-8--8-8-8--8-8-8--8-8-8--8-8-8-----|

        ..stone


d#|----0-0-0---0--0--0---0--0--0---0--0--0---0--0--0-------|
A#|----0-0-0---0--0--0---0--0--0---0--0--0---0--0--0-------|
A#|----0-0-0---0--0--0---0--0--0---0--0--0---0--0--0-------|
D#|----0-0-0---0--0--0---0--0--0---0--0--0---0--0--0-------|
G#|--------------------------------------------------------|
C |----8-8-10--10-10-12--12-12-12--12-12-12--12-12-12------|

                         ..no man is 


d#|-0--0--0---0--0--0---0--0--0---0--0--0---0--0--0--0-0-0-|
A#|-0--0--0---0--0--0---0--0--0---0--0--0---0--0--0--0-0-0-|
A#|-0--0--0---0--0--0---0--0--0---0--0--0---0--0--0--0-0-0-|
D#|-0--0--0---0--0--0---0--0--0---0--0--0---0--0--0--0-0-0-|
G#|--------------------------------------------------------|
C |-12-12-10--10-10-10--10-10-10--10-10-10--10-10-8--8-8-8-|

      ..an island                       ...this I know


d#|-0-0-0--0-0-0--0-0-0--0-0-0--0-0-0---0--0--0---0--0--0--|
A#|-0-0-0--0-0-0--0-0-0--0-0-0--0-0-0---0--0--0---0--0--0--|
A#|-0-0-0--0-0-0--0-0-0--0-0-0--0-0-0---0--0--0---0--0--0--|
D#|-0-0-0--0-0-0--0-0-0--0-0-0--0-0-0---0--0--0---0--0--0--|
G#|--------------------------------------------------------|
C |-8-8-8--8-8-8--8-8-8--8-8-8--8-8-12--12-12-12--12-12-12-|

                    can't you see oh...    maybe you 


d#|---0--0--0---0--0--0---0--0--0---0--0--0---0--0--0------|
A#|---0--0--0---0--0--0---0--0--0---0--0--0---0--0--0------|
A#|---0--0--0---0--0--0---0--0--0---0--0--0---0--0--0------|
D#|---0--0--0---0--0--0---0--0--0---0--0--0---0--0--0------|
G#|--------------------------------------------------------|
C |---12-12-12--12-12-10--10-10-10--10-10-10--10-10-10-----|

         ..were the ocean         ...and I was just a 


d#|--0--0--0--0-0-0--0-0-0--0-0-0--0-0-0--0-0-0--0-0-0-----|
A#|--0--0--0--0-0-0--0-0-0--0-0-0--0-0-0--0-0-0--0-0-0-----|
A#|--0--0--0--0-0-0--0-0-0--0-0-0--0-0-0--0-0-0--0-0-0-----|
D#|--0--0--0--0-0-0--0-0-0--0-0-0--0-0-0--0-0-0--0-0-0-----|
G#|--------------------------------------------------------|
C |--10-10-8--8-8-8--8-8-8--8-8-8--8-8-8--8-8-8--8-8-8-----|

        ..stone


d#|--0-0-0---0---0--0-0-0--0-0-0-0--0-0-0-0--0-0-0--0-0-0--|
A#|--0-0-0---0---0--0-0-0--0-0-0-0--0-0-0-0--0-0-0--0-0-0--|
A#|--0-0-0---0---2--2-2-2--2-2-2s5--5-5-5s7--7-7-0--0-0-0--|
D#|--0-0-0---0---0--0-0-0--0-0-0-0--0-0-0-0--0-0-0--0-0-0--|
G#|--------------4--4-4-4--4-4-4s7--7-7-7s9--9-9-7--7-7-7--|
C |--8-8-8---8---0--0-0-0--0-0-0-0--0-0-0-0--0-0-8--8-8-8--|

   ..so here we are


d#|--0-0-0--0-0--0--0--0--0-0-0--0-0-0-0--0-0-0-0--0-0-0---|
A#|--0-0-0--0-0--0--0--0--0-0-0--0-0-0-0--0-0-0-0--0-0-0---|
A#|--0-0-0--0-0--0--0--2--2-2-2--2-2-2s5--5-5-5s7--7-7-0---|
D#|--0-0-0--0-0--0--0--0--0-0-0--0-0-0-0--0-0-0-0--0-0-0---|
G#|--7-7-7--7-7--6--6--4--4-4-4--4-4-4s7--7-7-7s9--9-9-7---|
C |--8-8-8--8-8--8--8--0--0-0-0--0-0-0-0--0-0-0-0--0-0-8---|

                       (----repeat this section to end of song


d#|--0-0-0--0-0-0--0-0--0--0-------------------------------|
A#|--0-0-0--0-0-0--0-0--0--0-------------------------------|
A#|--0-0-0--0-0-0--0-0--0--0-------------------------------|
D#|--0-0-0--0-0-0--0-0--0--0-------------------------------|
G#|--7-7-7--7-7-7--7-7--6--6-------------------------------|
C |--8-8-8--8-8-8--8-8--8--8-------------------------------|

    ------------------------)




tabbed by me (dave) d4vef@hotmail.co.uk
Related for Black Flies tab
Black Flies chords by Ben Howard