Song name
# A B C D E F G H I J K L M N O P Q R S T U V W X Y Z

Ben Howard - Everything tab

                                             **Ben Howard-Everything**
                                             **A tab by I.Am.Mclovin**

Awesome song, hope i did it justice. questions, tips, complaints, just message me...Enjoy!

Open C tuning: |CGcgce|	<- all strings tuned down apart from the b string up a semitone
Capo on 3rd but on top 5 strings ONLY. So when you play open strings, this should happen...

e|-3-
c|-3-
g|-3-
c|-3-
G|-3-
C|-0-		<- thickest string

Frets are tabbed normally as if no capo so -3- on the top 5 strings means capo string 
and -4- would be the normal 4th fret (one up from capo)

p=pull, h=hammer, (1)=optional, /=slide up

----------
Intro:
e|-----------------|------------------|-----------------|-----------|-------------------|
c|-----------3-----|-------------3----|-----------------|-----------|-----10--------10--|
g|------3------3---|---------3----3---|-----------------|-----------|-----10--------10--|
c|----3---3------3-|----3-----------3-|------7--5p3h5p3-|-7--5p3h5--|-----10--------10--|x2
G|--8--------------|--8----8----------|--5--------------|-----------|--8---------7------|
C|-(8)-------------|-(8)--------------|-(0)-------------|-----------|-------------------|

-----------
Verse:
(The same intro pattern plays x2 throughout...)
----------
Pre-chorus:
(This plays twice for pre chorus/bridge)
e|------------------------|--------------------------|-------------------------------|
c|------------3-----------|-------------3------------|----------------3--------------|
g|--------3-------3----3--|-------3---------3-----3--|---------3----------3-------3--|
c|-----3----3-------3-----|---3------3---------3-----|-----3------3-----------3------| --
G|--8---------------------|-7------------------------|-------------------------------|
C|------------------------|--------------------------|--8----------------------------|

|    --------------------------|
|    --------------3-----------|
|    --------3--------3------3-|
|-   ------------3-------3-----|x2
|    --------------------------|
|    --8--8--------------------|


----------
Chorus:
(at * you have to come over the top of the neck down so your fingers face the floor and 
play the C (thickest string) string with your pinky (will be same fret as capo on other strings))


                                      *
e|--3----------------|---------------|-------------------------------|
c|--3----------------|-------7p5p3---|--3----3----3---3---3---3---3--|
g|--3----15--12--10--|---------------|--3----3----3---3---3---3---3--|
c|--3----15--12--10--|---------------|--3----5/7--7---5---3---5---3--|x4
G|--5----15--12---8--|---------------|--3----3----3---3---3---3---3--|
C|--0----------------|---------------|--3----3----3---3---3---3---3--|
         Eve-ry  king                  who knows  it  to  be true

(and after the fourth time, on the word end...)

e|---------------|----------------------------------------------------------------------------|
c|--7--5--3--5---|-----15---12---10/12-----------------------------------------15---12---7/8--|
g|--7--5--3--5---|-----15---12---10/12-----------------------------------------15---12---7/8--|
c|--7--5--3--5---|-----15---12---10/12--  He does a few varients --------------15---12---7/8--|
G|--3--3--3--5---|-----15---12---10/12-- of this and then something like...----15---12---7/8--|
C|---------------|-----15---12---10/12-----------------------------------------15---12---7/8--|

---------

(Verse)
And the birds still sing outside
These windows where we sat together
Like nothing ever happened here
The white house on the hill,
Black clouds of weather

And the church spire over the river
She still sits there warm in the evening glow
But you donít care about these scenes I treasure
About these west winds, I know, I know

(Pre-chorus)
Seems everything around here
Stays like stone
Seems it's about time darling
About time we let this all go

(Chorus)
Everything must start again anew
Everything just goes that way my friend
Every king knows it to be true
That every kingdom must one day come to an end

(Verse)
And the sun, she may be long gone
Lost to these memories we found
But sheíll be here when itís all done
When our bodies are lain beneath the ground

(pre-chorus)
Seems everything that goes around
Comes around here
Seems that everything that stays
Somehow gets me down again

(chorus)
Everything must start again anew
Everything just goes that way my friend
Every king knows it to be true
That every kingdom must one day come to an end
Tap to rate this tab
# A B C D E F G H I J K L M N O P Q R S T U V W X Y Z