Song name
# A B C D E F G H I J K L M N O P Q R S T U V W X Y Z

Ben Howard - Move Like You Want tab

-------------------------------------------------------------------------------
			     MOVE LIKE YOU WANT - Ben Howard
-------------------------------------------------------------------------------
Tabbed by: Andri
Email: globe194@hotmail.com

Tuning: D-A-D-F#-A-E

Strumming Tip:

Ben Howard has his own style of strumming and picking. So i don't recommend figuring out 
his stye of "wholehand-strumming", except you want to spend ages ;-) . I would 
recommend to play it with "normal, wrist-driven, fast and loose fingerstrumming".


Special Chord:
F#7sus4: 4xx777 or 444777 (He uses his pinkie to grab the notes on the 7th fret)

Verse Strumming:

|--D---D-D-U--D--D-U----D-D---D-D-U---D-D-U

|------0-x-0-----0-0---------0--x-0-----0-0---|
|------0-x-0-----0-0---------0--x-0-----0-0---|
|------2-x-2-----2-2---------2--x-2-----2-2---|
|------2-x-2-----2-2---------2--x-2-----2-2---|
|------x-x-x-----x-x---------x--x-x-----x-x---|
|--2-----------2-------2-2------------2-------|

-------7-x-7---7-7------7--x-7---7-7---|
-------7-x-7---7-7------7--x-7---7-7---|
-------7-x-7---7-7------7--x-7---7-7---|
---------------------------------------|
---------------------------------------|
----4--------4-----4--4-------4--------|


Pre Chorus:

"So lady get down..."
|-----0-x-x---------x-2-------------------x-2----------------7---------|
|-----0-x-x----2h4--x---4-2-4--------2h4-x----4-2-4---------7----------|
|-----2-x-x--0~----------------------0~------------------------7-------|
|-----2-x-x--0~----------------------0~--------------------------------|
|------------0~----------------------0~--------------------------------|
|-2-2--------0~--------------------0-0---------------------4-4---------|


Chorus:
"Baby move like you wanto to..."
-------0-x-0---0-0--------0-x-0-----0-0------------x-2-------------------x-2-------|
-------0-x-0---0-0--------0-x-0-----0-0-------2h4--x---4-2-4------2h4-x------4-2-4-|
-------0-x-0---0-0--------2-x-2-----2-2---0~---------------------------------------|
----4--------4------------2-x-2-----2-2---0~---------------------------------------|
----4--------4------------x-x-x-----x-x---0~---------------------------------------|
----4--------4--------2-----------2-------0~--------------------0-0----------------|



************************************

| /   slide up
| \   slide down
| h   hammer-on
| p   pull-off
| ~   vibrato
| +   harmonic
| x   Mute note
| b   Bend
| pb  Pre-bend
| br  Bend release
| pbr Pre-bend release
| brb Bend release bend

************************************
Tap to rate this tab
 
# A B C D E F G H I J K L M N O P Q R S T U V W X Y Z