Song name
# A B C D E F G H I J K L M N O P Q R S T U V W X Y Z

Ben Howard - Diamonds tab

-------------------------------------------------------------------------------
			     Diamonds  Ben Howard
-------------------------------------------------------------------------------
Tabbed by: Neil Wicker
Email: wicker101@hotmail.co.uk

Tuning: Standard

Thought Id work this out in standard tuning for people who
Dont want to retune.

Capo 3


Intro:

e|-----------------------------------|---------------------------------------|
B|-----------------------------------|---------------------------------------|
G|-----------4-----------4--------4--|-----------4-----------4--------4------|
D|-----4-----------4-----------4-----|-----4-----------4-----------4---------|
A|--2-----2-----2-----2-----2--------|--2-----2-----2-----2-----2------------|
E|-----------------------------------|---------------------------------------|

e|-----------------------------------|---------------------------------------|
B|-----------------------------------|---------------------------------------|
G|-----------4-----------4--------4--|-----------4-----------4--------4------|
D|-----4-----------4-----------4-----|-----4-----------4-----------4---------|
A|--0-----0-----0-----0-----0--------|--0-----0-----0-----0-----0------------|
E|-----------------------------------|---------------------------------------|

e|-----------------------------------|---------------------------------------|
B|-----------------------------------|---------------------------------------|
G|-----------4-----------4--------4--|-----------4-----------4--------4------|
D|-----4-----------4-----------4-----|-----4-----------4-----------4---------|
A|-----------------------------------|---------------------------------------|
E|--4-----4-----4-----4-----4--------|--4-----4-----4-----4-----4------------|

e|-----------------------------------|---------------------------------------|
B|-----------------------------------|---------------------------------------|
G|-----------4-----------4--------4--|-----------4-----------4--------4------|
D|-----4-----------4-----------4-----|-----4-----------4-----------4---------|
A|-----------------------------------|---------------------------------------|
E|--3-----3-----3-----3-----3--------|--3-----3-----3-----3-----3------------|

e|-------------------------------------------|
B|-------------------------------------------|
G|-----4-----4-----4-----4-----4-----4-------|
D|-----4-----4-----4-----4-----4-----4-------|
A|--2-----2-----2-----2-----2-----2-----2----|
E|-------------------------------------------|



Verse:


e|-----------------------------------|---------------------------------------|
B|-----------------------------------|---------------------------------------|
G|-----------4-----------4--------4--|-----------4-----------4--------4------|
D|-----4-----------4-----------4-----|-----4-----------4-----------4---------|
A|--2-----2-----2-----2-----2--------|--2-----2-----2-----2-----2------------|
E|-----------------------------------|---------------------------------------|

e|-----------------------------------|---------------------------------------|
B|-----------------------------------|---------------------------------------|
G|-----------4-----------4--------4--|-----------4-----------4--------4------|
D|-----4-----------4-----------4-----|-----4-----------4-----------4---------|
A|--0-----0-----0-----0-----0--------|--0-----0-----0-----0-----0------------|
E|-----------------------------------|---------------------------------------|

e|-----------------------------------|---------------------------------------|
B|-----------------------------------|---------------------------------------|
G|-----------4-----------4--------4--|-----------4-----------4--------4------|
D|-----4-----------4-----------4-----|-----4-----------4-----------4---------|
A|-----------------------------------|---------------------------------------|
E|--4-----4-----4-----4-----4--------|--4-----4-----4-----4-----4------------|

e|-----------------------------------|---------------------------------------|
B|-----------------------------------|---------------------------------------|
G|-----------4-----------4--------4--|-----------4-----------4--------4------|
D|-----4-----------4-----------4-----|-----4-----------4-----------4---------|
A|-----------------------------------|---------------------------------------|
E|--3-----3-----3-----3-----3--------|--3-----3-----3-----3-----3------------|

All I am is the bones you made for me
So garishly clean
White as the horses, they carry me away

(break)
e|-----------------------------------|---------------------------------------|
B|-----------5-----------3-----------|-----------5-----------3---------------|
G|--------------------------------4--|--------------------------------4------|
D|-----4-----------4-----------4-----|-----4-----------4-----------4---------|
A|--2-----2-----2-----2-----2--------|--2-----2-----2-----2-----2------------|
E|-----------------------------------|---------------------------------------|

e|-----------------------------------|---------------------------------------|
B|-----------5-----------3-----------|-----------5-----------3---------------|
G|--------------------------------4--|--------------------------------4------|
D|-----4-----------4-----------4-----|-----4-----------4-----------4---------|
A|--0-----0-----0-----0-----0--------|--0-----0-----0-----0-----0------------|
E|-----------------------------------|---------------------------------------|

(I find it easiest to switch to your middle finger on the low E forth fret for the
Bars below)

e|-----------------------------------|---------------------------------------|
B|-----------5-----------3-----------|-----------5-----------3---------------|
G|--------------------------------4--|--------------------------------4------|
D|-----4-----------4-----------4-----|-----4-----------4-----------4---------|
A|-----------------------------------|---------------------------------------|
E|--4-----4-----4-----4-----4--------|--4-----4-----4-----4-----4------------|

e|-----------------------------------|---------------------------------------|
B|-----------------------------------|---------------------------------------|
G|-----------4-----------4--------4--|-----------4-----------4--------4------|
D|-----4-----------4-----------4-----|-----4-----------4-----------4---------|
A|-----------------------------------|---------------------------------------|
E|--3-----3-----3-----3-----3--------|--3-----3-----3-----3-----3------------|


(end of break)

e|-----------------------------------|---------------------------------------|
B|-----------------------------------|---------------------------------------|
G|-----------4-----------4--------4--|-----------4-----------4--------4------|
D|-----4-----------4-----------4-----|-----4-----------4-----------4---------|
A|--2-----2-----2-----2-----2--------|--2-----2-----2-----2-----2------------|
E|-----------------------------------|---------------------------------------|

e|-----------------------------------|---------------------------------------|
B|-----------------------------------|---------------------------------------|
G|-----------4-----------4--------4--|-----------4-----------4--------4------|
D|-----4-----------4-----------4-----|-----4-----------4-----------4---------|
A|--0-----0-----0-----0-----0--------|--0-----0-----0-----0-----0------------|
E|-----------------------------------|---------------------------------------|

e|-----------------------------------|---------------------------------------|
B|-----------------------------------|---------------------------------------|
G|-----------4-----------4--------4--|-----------4-----------4--------4------|
D|-----4-----------4-----------4-----|-----4-----------4-----------4---------|
A|-----------------------------------|---------------------------------------|
E|--4-----4-----4-----4-----4--------|--4-----4-----4-----4-----4------------|

e|-----------------------------------|---------------------------------------|
B|-----------------------------------|---------------------------------------|
G|-----------4-----------4--------4--|-----------4-----------4--------4------|
D|-----4-----------4-----------4-----|-----4-----------4-----------4---------|
A|-----------------------------------|---------------------------------------|
E|--3-----3-----3-----3-----3--------|--3-----3-----3-----3-----3------------|

e|-------------------------------------------|
B|-------------------------------------------|
G|-----4-----4-----4-----4-----4-----4-------|
D|-----4-----4-----4-----4-----4-----4-------|
A|--2-----2-----2-----2-----2-----2-----2----|
E|-------------------------------------------|


And all my demons, you said, come and go with a haze
I might as well took a
I'll grow old in my way.
Just like you do.


(I put the basic chords in here that I think fit but if
you find better ones let me know, I converted the chords Ben uses
when in CGCGGc tuning to standard but some are impossible (4th fret and 12th...) but you 
can play around with these ones if you want to get
a more matching sound
042400
022400
542400  )

Chorus

          G         G/F#             C
Oh there ain't no diamonds in the boredom
           G        G/F#           C
Oh there ain't no darkness that I fear
           G      G/F#           C
Oh there ain't no way to say I love you more
     Am  C                G
So be clear, just to be clear
       Am  C      G
So be clear, be clear.

Verse 2:

e|-----------------------------------|---------------------------------------|
B|-----------------------------------|---------------------------------------|
G|-----------4-----------4--------4--|-----------4-----------4--------4------|
D|-----4-----------4-----------4-----|-----4-----------4-----------4---------|
A|--2-----2-----2-----2-----2--------|--2-----2-----2-----2-----2------------|
E|-----------------------------------|---------------------------------------|

e|-----------------------------------|---------------------------------------|
B|-----------------------------------|---------------------------------------|
G|-----------4-----------4--------4--|-----------4-----------4--------4------|
D|-----4-----------4-----------4-----|-----4-----------4-----------4---------|
A|--0-----0-----0-----0-----0--------|--0-----0-----0-----0-----0------------|
E|-----------------------------------|---------------------------------------|

e|-----------------------------------|---------------------------------------|
B|-----------------------------------|---------------------------------------|
G|-----------4-----------4--------4--|-----------4-----------4--------4------|
D|-----4-----------4-----------4-----|-----4-----------4-----------4---------|
A|-----------------------------------|---------------------------------------|
E|--4-----4-----4-----4-----4--------|--4-----4-----4-----4-----4------------|

e|-----------------------------------|---------------------------------------|
B|-----------------------------------|---------------------------------------|
G|-----------4-----------4--------4--|-----------4-----------4--------4------|
D|-----4-----------4-----------4-----|-----4-----------4-----------4---------|
A|-----------------------------------|---------------------------------------|
E|--3-----3-----3-----3-----3--------|--3-----3-----3-----3-----3------------|

e|-----------------------------------|---------------------------------------|
B|-----------5-----------3-----------|-----------5-----------3---------------|
G|--------------------------------4--|--------------------------------4------|
D|-----4-----------4-----------4-----|-----4-----------4-----------4---------|
A|--2-----2-----2-----2-----2--------|--2-----2-----2-----2-----2------------|
E|-----------------------------------|---------------------------------------|

e|-----------------------------------|---------------------------------------|
B|-----------5-----------3-----------|-----------5-----------3---------------|
G|--------------------------------4--|--------------------------------4------|
D|-----4-----------4-----------4-----|-----4-----------4-----------4---------|
A|--0-----0-----0-----0-----0--------|--0-----0-----0-----0-----0------------|
E|-----------------------------------|---------------------------------------|

e|-----------------------------------|---------------------------------------|
B|-----------5-----------3-----------|-----------5-----------3---------------|
G|--------------------------------4--|--------------------------------4------|
D|-----4-----------4-----------4-----|-----4-----------4-----------4---------|
A|-----------------------------------|---------------------------------------|
E|--4-----4-----4-----4-----4--------|--4-----4-----4-----4-----4------------|

e|-----------------------------------|---------------------------------------|
B|-----------------------------------|---------------------------------------|
G|-----------4-----------4--------4--|-----------4-----------4--------4------|
D|-----4-----------4-----------4-----|-----4-----------4-----------4---------|
A|-----------------------------------|---------------------------------------|
E|--3-----3-----3-----3-----3--------|--3-----3-----3-----3-----3------------|


e|-------------------------------------------|
B|-------------------------------------------|
G|-----4-----4-----4-----4-----4-----4-------| x2
D|-----4-----4-----4-----4-----4-----4-------|
A|--2-----2-----2-----2-----2-----2-----2----|
E|-------------------------------------------|



All I am is the bones you made for me
Just driftwood for the sea
Heavy as the horses, that carry me away.
That carry me away.

Chorus and ending:
          G         G/F#             C
Oh there ain't no diamonds in the boredom
           G        G/F#           C
Oh there ain't no darkness that I fear
           G      G/F#           C
Oh there ain't no way to say I love you more
       Am  C      G
So be clear, be clear.

          G          G/F#            C
Oh there ain't no diamonds in the boredom
       G       G/F#           C
Oh oh oh no darkness that I fear
     G      G/f#           C
Oh oh oh no way to say I love you more
      Am C               G
So be clear, just to be clear
       Am C       G
So be clear, be clear

(C,G,Am,C x4)
oh oh oh nas

          G         G/F#             C
no there ain't no diamonds in the boredom
           G        G/F#           C
Oh there ain't no darkness that I fear
           G      G/F#           C
Oh there ain't no way to say I love you more
     Am  C                G
So be clear, just to be clear
       Am  C      G
So be clear, be clear.
Tap to rate this tab
 
# A B C D E F G H I J K L M N O P Q R S T U V W X Y Z