Song name
# A B C D E F G H I J K L M N O P Q R S T U V W X Y Z

Ben Howard - The Fear tab

-------------------------------------------------------------------------------
                             The Fear - Ben Howard
-------------------------------------------------------------------------------
Tabbed by: Hoste Christophe
Email: hostechristophe@hotmail.be

Tuning: Open C-tuning (CGCGGC) capo on 4 (for album version), capo on 3 (for live 
version). Tablature is relative to capo.

I do not take credit for this version as I used the instructional video from 
goliathguitarstutorials to construct this tab.

INTRO

e|------------------------------------------------------|
B|------------------------------------------------------|
G|---4---2---4---2---2p0----4---2---4---2---2p0---------|
D|------------------------------------------------------|
A|-2---2---2---2---2------2---2---2---2---2-------------|
E|------------------------------------------------------|

e|-----------------------------------x------------------|
B|-----------------------------------x------------------|
G|---4---2---4---2---2p0----4---2----x------------------|
D|-----------------------------------x----------2h4p2p0-|
A|-0---0---0---0---0------0---0------x------2h4---------|
E|-----------------------------------x--2h4-------------|

VERSE

e|------------------------------------------------------|
B|------------------------------------------------------|
G|---4---2---4---2---2p0----4---2---4---2---2p0---------|
D|------------------------------------------------------|
A|-2---2---2---2---2------2---2---2---2---2-------------|
E|------------------------------------------------------|

e|-----------------------------------2------------------|
B|-----------------------------------2------------------|
G|---4---2---4---2---2p0----4---2----2---4---2----------|
D|------------------------------------------------------|
A|-0---0---0---0---0------0---0---0----0---0------------|
E|------------------------------------------------------|

e|------------------------------------------------------|
B|------------------------------------------------------|
G|---4---2---4---2---2p0----4---2---4---2---2p0---------|
D|------------------------------------------------------|
A|-2---2---2---2---2------2---2---2---2---2-------------|
E|------------------------------------------------------|

e|-----------------------------------x------------------|
B|-----------------------------------x------------------|
G|---4---2---4---2---2p0----4---2----x------------------|
D|-----------------------------------x----------2h4p2p0-|
A|-0---0---0---0---0------0---0------x------2h4---------|
E|-----------------------------------x--2h4-------------|

e|------------------------------------------------------|
B|------------------------------------------------------|
G|---4---2---4---2---2p0----4---2---4---2---2p0---------|
D|------------------------------------------------------|
A|-2---2---2---2---2------2---2---2---2---2-------------|
E|------------------------------------------------------|

e|-----------------------------------2------------------|
B|-----------------------------------2------------------|
G|---4---2---4---2---2p0----4---2----2---4---2----------|
D|------------------------------------------------------|
A|-0---0---0---0---0------0---0---0----0---0------------|
E|------------------------------------------------------|

e|------------------------------------------------------|
B|------------------------------------------------------|
G|---4---2---4---2---2p0----4---2---4---2---2p0---------|
D|------------------------------------------------------|
A|-2---2---2---2---2------2---2---2---2---2-------------|
E|------------------------------------------------------|

e|-----------------------------------x------------------|
B|-----------------------------------x------------------|
G|---4---2---4---2---2p0----4---2----x------------------|
D|-----------------------------------x----------2h4p2p0-|
A|-0---0---0---0---0------0---0------x------2h4---------|
E|-----------------------------------x--2h4-------------|


CHORUS


e|-----------0-----------0-----------------0-----------0-----------|
B|-----7-----------7-----------7-----7-----------7-----------7-----|
G|-----0-----------0-----------0-----0-----------0-----------0-----|
D|-----------------------------------------------------------------|
A|-/5-----5-----5-----5-----5-----5-----5-----5-----5-----5--------|
E|-----------------------------------------------------------------|

e|-----------------------------------------------------------------|
B|----4-----4-----2-----2------------------------------------------|
G|----0-----0-----0-----0------------------------------------------|
D|----4-----4-----2-----2------------------------------------------|
A|-----------------------------------------------------------------|
E|-4-----4-----2-----2---------------------------------------------|

e|-----------0-----------0-----------------0-----------0-----------|
B|-----7-----------7-----------7-----7-----------7-----------7-----|
G|-----0-----------0-----------0-----0-----------0-----------0-----|
D|-----------------------------------------------------------------|
A|-/5-----5-----5-----5-----5-----5-----5-----5-----5-----5--------|
E|-----------------------------------------------------------------|

e|-----------------------------------------------------------------|
B|----4-----4-----2-----2------------------------------------------|
G|----0-----0-----0-----0------------------------------------------|
D|----4-----4-----2-----2------------------------------------------|
A|-----------------------------------------------------------------|
E|-4-----4-----2-----2---------------------------------------------|

e|-----------0-----------0-----------------0-----------0-----------|
B|-----7-----------7-----------7-----7-----------7-----------7-----|
G|-----0-----------0-----------0-----0-----------0-----------0-----|
D|-----------------------------------------------------------------|
A|-/5-----5-----5-----5-----5-----5-----5-----5-----5-----5--------|
E|-----------------------------------------------------------------|

e|-----------------------------------------------------------------|
B|----4-----4-----4-----4-----4-----4-----4-----4------------------|
G|----0-----0-----0-----0-----0-----0-----0-----0------------------|
D|----4-----4-----4-----4-----4-----4-----4-----4------------------|
A|-----------------------------------------------------------------|
E|-4-----4-----4-----4-----4-----4-----4-----4---------------------|

e|-----------------------------------------------------------------|
B|----2-----2-----2-----2-----2-----2-----2-----2------------------|
G|----0-----0-----0-----0-----0-----0-----0-----0------------------|
D|----2-----2-----2-----2-----2-----2-----2-----2------------------|
A|-----------------------------------------------------------------|
E|-2-----2-----2-----2-----2-----2-----2-----2---------------------|

e|-----------------------------------------------------------------|
B|----0-----0-----0-----0-----0-----0-----0-----0------------------|
G|----0-----0-----0-----0-----0-----0-----0-----0------------------|
D|----0-----0-----0-----0-----0-----0-----0-----0------------------|
A|-----------------------------------------------------------------|
E|-0-----0-----0-----0-----0-----0-----0-----0---------------------|

INTERLUDE

e|--------------------------------------------------------------------------------|
B|--------------------------------------------------------------------------------|
G|--------------------------------------------------------------------------------|
D|--------------------------------------------------------------------------------|
A|-9--9--9--7--9--7--4--2--2--4--7--4--2p0--9--9--9--7--9--7--4--2--2--4--7--4--2-|
E|-0--0--0--0--0--0--0--0--0--0--0--0--0----0--0--0--0--0--0--0--0--0--0--0--0--0-|


e|------------------------------------------------------|
B|------------------------------------------------------|
G|---4---2---4---2---2p0----4---2---4---2---2p0---------|
D|------------------------------------------------------|
A|-2---2---2---2---2------2---2---2---2---2-------------|
E|------------------------------------------------------|

e|-----------------------------------2------------------|
B|-----------------------------------2------------------|
G|---4---2---4---2---2p0----4---2----2---4---2----------|
D|------------------------------------------------------|
A|-0---0---0---0---0------0---0---0----0---0------------|
E|------------------------------------------------------|

e|------------------------------------------------------|
B|------------------------------------------------------|
G|---4---2---4---2---2p0----4---2---4---2---2p0---------|
D|------------------------------------------------------|
A|-2---2---2---2---2------2---2---2---2---2-------------|
E|------------------------------------------------------|

e|-----------------------------------x------------------|
B|-----------------------------------x------------------|
G|---4---2---4---2---2p0----4---2----x------------------|
D|-----------------------------------x----------2h4p2p0-|
A|-0---0---0---0---0------0---0------x------2h4---------|
E|-----------------------------------x--2h4-------------|

VERSE

CHORUS

INTERLUDE ( x4 )

CHORUS 2 ( x6 ) (muted)

e|----------------------------------------------------------------------|
B|----------------------------------------------------------------------|
G|----------------------------------------------------------------------|
D|-4-4-4-4-4-4-4-4-7-7-7-7-7-7-7-7--7-7-7-7-7-7-7-7-7-7-7-7-7-7-7-7-----|
A|-4-4-4-4-4-4-4-4-7-7-7-7-7-7-7-7--5-5-5-4-4-4-0-0-5-5-5-4-4-4-0-0-----|
E|-4-4-4-4-4-4-4-4-7-7-7-7-7-7-7-7--------------------------------------|

CHORUS 2' (x6) (let the strings ring)

e|----------------------------------------------------------------------|
B|----------------------------------------------------------------------|
G|----------------------------------------------------------------------|
D|-4-4-4-4-4-4-4-4-7-7-7-7-7-7-7-7--7-7-7-7-7-7-7-7-7-7-7-7-7-7-7-7-----|
A|-4-4-4-4-4-4-4-4-7-7-7-7-7-7-7-7--5-5-5-4-4-4-0-0-5-5-5-4-4-4-0-0-----|
E|-4-4-4-4-4-4-4-4-7-7-7-7-7-7-7-7--------------------------------------|

OUTRO 

e|-----------------------------------------------------------------|
B|----4-----4-----4-----4-----4-----4-----4-----4------------------|
G|----0-----0-----0-----0-----0-----0-----0-----0------------------|
D|----4-----4-----4-----4-----4-----4-----4-----4------------------|
A|-----------------------------------------------------------------|
E|-4-----4-----4-----4-----4-----4-----4-----4---------------------|

e|-----------------------------------------------------------------|
B|----2-----2-----2-----2-----2-----2-----2-----2------------------|
G|----0-----0-----0-----0-----0-----0-----0-----0------------------|
D|----2-----2-----2-----2-----2-----2-----2-----2------------------|
A|-----------------------------------------------------------------|
E|-2-----2-----2-----2-----2-----2-----2-----2---------------------|

e|-----------------------------------------------------------------|
B|----0-----0-----0-----0-----0-----0-----0-----0------------------|
G|----0-----0-----0-----0-----0-----0-----0-----0------------------|
D|----0-----0-----0-----0-----0-----0-----0-----0------------------|
A|-----------------------------------------------------------------|
E|-0-----0-----0-----0-----0-----0-----0-----0---------------------|

e|------------------------------------------|
B|------------------------------------------|
G|------------------------------------------|
D|------------------------------------------|
A|-9--9--9--7--9--7--4--2--2--4--7--4--2p0--|
E|-0--0--0--0--0--0--0--0--0--0--0--0--0----|


************************************

| /   slide up
| \   slide down
| h   hammer-on
| p   pull-off
| ~   vibrato
| +   harmonic
| x   Mute note
| b   Bend
| pb  Pre-bend
| br  Bend release
| pbr Pre-bend release
| brb Bend release bend

************************************
Tap to rate this tab
# A B C D E F G H I J K L M N O P Q R S T U V W X Y Z