Song name
# A B C D E F G H I J K L M N O P Q R S T U V W X Y Z

Ben Howard - Old Pine tab

-------------------------------------------------------------------------------
                             Old Pine - Ben Howard
-------------------------------------------------------------------------------
Tabbed by: Neil Wicker
Email: wicker101@hotmail.co.uk

Tuning: Standard

capo 3

This is how I play old pine in standard tuning just to save retuning all the time
(I've also done black flies and diamonds).
It's not a perfect match to the recording (ben's obscure tuning makes that impossible) 
but it sounds pretty good.
hope you enjoy it :)


  Intro:

Dsus2
e|-----------5-----------3-----------2-----------0--|
B|--------3-----------3-----------3-----------3-----|
G|-----2-----------2-----------2-----------2--------|
D|--0-----------0-----------0-----------0-----------|
A|--------------------------------------------------|
E|--------------------------------------------------|


e|--------------------------------------------------|
B|--------------3-----------------------3-----------|
G|--------2-----------2-----------2-----------2-----|
D|-----0-----0-----0-----0-----0-----0-----0-----0--|
A|--2-----------------------2-----------------------|
E|--------------------------------------------------|

e|--------------------------------------------------|
B|--------------3-----------------------3-----------|
G|--------2-----------2-----------2-----------2-----|
D|-----2-----2-----2-----2-----2-----2-----2-----2--|
A|--0-----------------------0-----------------------|
E|--------------------------------------------------|

  Verse 1:

e|--------------------------------------------------|
B|--------------------------------------------------|
G|---------------2----------------------------------|
D|-----4p2p0--------0-----0-----4p2p0-----2p0--2p0--|
A|--5---------0--------0-----5---------0------------|
E|--------------------------------------------------|

e|---------------------------|--------------------------------------------------|
B|---------------------------|--------------3-----------------------3-----------|
G|---------------2-----------|--------2-----------2-----------2-----------2-----|
D|-----4p2p0--------0-----0--|-----0-----0-----0-----0-----0-----0-----0-----0--|
A|--5---------0--------0-----|--2-----------------------4-----------------------|
E|---------------------------|--------------------------------------------------|

Chorus: (the first chord is difficult but it gets easier once you get used to it, use 
your first finger to bar the 2 strings on the 2nd fret)

e|--0------0-----0-----0------0-------0---|
B|--3------3-----3-----3------3-------3---|
G|--2------2-----2-----2------2-------2---|
D|--2------0-----2-----0------0-------2---|
A|--5------4-----5-----4------2-------0---|
E|--x------x-----x-----x------x-------0---|

  Verse 2:

e|--------------------------------------------------|
B|--------------------------------------------------|
G|---------------2----------------------------------|
D|-----4p2p0--------0-----0-----4p2p0-----2p0--2p0--|
A|--5---------0--------0-----5---------0------------|
E|--------------------------------------------------|

e|---------------------------|--------------------0--------------------0---|
B|---------------------------|--------------3-----3--------------3-----3---|
G|---------------2-----------|--------2--------2--2--------2--------2--2---|
D|-----4p2p0--------0-----0--|-----0-----0--------0-----0-----0--------0---|
A|--5---------0--------0-----|--2-----------------2--4-----------------4---|
E|---------------------------|---------------------------------------------|

Chorus:

e|--0------0-----0-----0------0-------0---|
B|--3------3-----3-----3------3-------3---|
G|--2------2-----2-----2------2-------2---|
D|--2------0-----2-----0------0-------2---|
A|--5------4-----5-----4------2-------0---|
E|--x------x-----x-----x------x-------0---|


Bridge:

e|--0---0--|
B|--3---3--|
G|--2---2--|
D|--2---0--| x8 (or so, sliding from 5 to 4 on the A string)
A|--5---4--|
E|--x---x--|

and

e|--------|
B|--------|
G|--------|
D|--9--7--|  occasioanlly
A|--0--0--|
E|--7--5--|


************************************

| /   slide up
| \   slide down
| h   hammer-on
| p   pull-off
| ~   vibrato
| +   harmonic
| x   Mute note
| b   Bend
| pb  Pre-bend
| br  Bend release
| pbr Pre-bend release
| brb Bend release bend

************************************
Tap to rate this tab
# A B C D E F G H I J K L M N O P Q R S T U V W X Y Z