Song name
# A B C D E F G H I J K L M N O P Q R S T U V W X Y Z

Ben Howard - Promise tab

-------------------------------------------------------------------------------
                             Promise - Ben Howard
-------------------------------------------------------------------------------
Tabbed by: Clark Williams
Email: clrk.williams@gmail.com

Tuning:CFCGFC

Capo: 2

I used the other tab to help me with tuning but i think this is the way that it is 
actually played. Its the same as Ben's other tuning but you drop two of the G's down a step.
Great song and not too hard to play

The last section is partially strummed, you must hit the stings at the same time with a 
slap like style like explained in this video: http://www.youtube.com/watch?v=k0q528dWlTI

This is my first tab but IS accurate, Im also working on Three Tree Town and London 
which aren't as easy as this but would appreciate some help if anyone is interested.
Enjoy


Part 1:

C|-------------------------------|------------------------------|
F|-------------------------------|------------------------------|
G|----------------12-------------|----------------12------------|
C|---------0---------------------|---------0--------------------|
F|-----11------------------11----|-----11-----------------11----|
C|--0---------0---------0--------|--0---------0--------0--------|


C|-------------------------------|------------------------------|
F|-------------------------------|------------------------------|
G|----------------12-------------|----------------12------------|
C|---------0---------------------|---------0--------------------|
F|-----11------------------11----|-----11-----------------11----|
C|--0---------0---------0--------|--0---------0--------0--------|


C|-------------------------------|------------------------------|
F|-------------------------------|------------------------------|
G|----------------12-------------|----------------12------------|
C|---------0---------------------|---------0--------------------|
F|-----11------------------11----|-----11-----------------11----|
C|--9---------9---------9--------|--9---------9--------9--------|


C|-------------------------------|------------------------------|
F|-------------------------------|------------------------------|
G|----------------12-------------|----------------12------------|
C|---------0---------------------|---------0--------------------|
F|-----11------------------11----|-----11-----------------11----|
C|--9---------9---------9--------|--9---------9--------9--------|

Bridge:

C|-------------------------------|------------------------------|
F|-------------------------------|------------------------------|
G|----------------12-------------|----------------12------------|
C|---------0---------------------|---------0--------------------|
F|------9-------------------9----|------9-----------------9-----|
C|--11--------11--------11-------|--11--------11------11--------|
"and maybe.."


C|---------------0---------------|---------------0----------------|
F|--------------------0----------|--------------------0-----------|
G|-------------------------------|--------------------------------|
C|----------0--------------------|----------0---------------------|
F|------11-------------------11--|------11-------------------11---|
C|--0---------0-----0-----0------|--0---------0-----0-----0-------|

C|---------------0---------------|---------------0----------------|
F|--------------------0----------|--------------------0-----------|
G|-------------------------------|--------------------------------|
C|----------0--------------------|----------0---------------------|
F|------11-------------------11--|------11-------------------11---|
C|--9---------9-----9-----9------|--9---------9-----9-----9-------|
Part 3:

The parts with three strings at once are to be played with a strum/slap action
C|-----------------------------------------------------|
F|-----------------------------------------------------|
G|----------------12-------10------9---------10p9------|
C|---------0--0--------0-------0------0------------0---|
F|-----11-----11-------11------11-----11-----------11--|
C|--0---------0--------0-------0------0---0--------0---|
"Who am i..."

C|-----------------------------------------------------|
F|-----------------------------------------------------|
G|----------------12-------10------9---------10p9------|
C|---------0--0--------0-------0------0------------0---|
F|-----11-----11-------11------11-----11-----------11--|
C|--0---------0--------0-------0------0---0--------0---|

C|-----------------------------------------------------|
F|-----------------------------------------------------|
G|----------------12-------10------9---------10p9------|
C|---------0--0--------0-------0------0------------0---|
F|-----11-----11-------11------0------0------------0---|
C|--9---------9--------9-------9------9---9--------9---|

C|-----------------------------------------------------|
F|-----------------------------------------------------|
G|----------------12-------10------9---------10p9------|
C|---------0--0--------0-------0------0------------0---|
F|-----11-----11-------11------0------0------------0---|
C|--9---------9--------9-------9------9---9--------9---|
Tap to rate this tab
# A B C D E F G H I J K L M N O P Q R S T U V W X Y Z