Song name
# A B C D E F G H I J K L M N O P Q R S T U V W X Y Z

Ben Howard - Three Tree Town tab

Voici ma version de Three Tree Town par Ben Howard

Ben joue probablement cette chanson avec un tuning "non standard", open C ou
autre, moi je l'ai retranscrite pour un tuning standard, je trouve que sa ressemble assez

Standard Tuning et capo 2:

Intro:
E --------------------------------------------------------------------------------------|
A --------------------------------------------------------------------------------------|
D -------2----2---2------        --------2----2---2---      ----------2---2--2--      --|
G -------0----0---0------   X2   --------0----0---0---  X2  ----------0---0--0--  X4  --|
B ----2-----2---2--------        -----4----4----4-----      --------5----5--5---      --|
E --------------------------------------------------------------------------------------|

Couplet:
E --------------------------------------------------------------------------------------|
A --------------------------------------------------------------------------------------|
D -------2----2---2------        --------2----2---2---      ----------2---2--2--      --|
G -------0----0---0------   X2   --------0----0---0---  X2  ----------0---0--0--  X2  --|
B ----2-----2---2--------        -----4----4----4-----      --------5----5--5---      --|
E --------------------------------------------------------------------------------------|
      Come in              from       the darkness      on         the edge of this 
three tree town.
E --------------------------------------------------------------------------------------|
A --------------------------------------------------------------------------------------|
D -------2----2---2------        --------2----2---2---      ----------2---2--2--      --|
G -------0----0---0------   X2   --------0----0---0---  X2  ----------0---0--0--  X2  --|
B ----2-----2---2--------        -----4----4----4-----      --------5----5--5---      --|
E --------------------------------------------------------------------------------------|
   Because it's thicker than the woods out there,                  Settles harder than 
the cold winter
E --------------------------------------------------------------------------------------|
A --------------------------------------------------------------------------------------|
D -------2----2---2------        --------2----2---2---      ----------2---2--2--      --|
G -------0----0---0------   X2   --------0----0---0---  X2  ----------0---0--0--  X2  --|
B ----2-----2---2--------        -----4----4----4-----      --------5----5--5---      --|
E --------------------------------------------------------------------------------------|
      ground

ET on recommence:

Come in from the shadows of these boot black, marching clouds
Because trouble falls like rain,
And lately it's been pouring down.

Refrain:
E -------------------------------------------------------------------------------------|
A -------------------------------------------------------------------------------------|
D --------2----2-------        ---------2----2------      ----------2----2-----      --|
G ------0----0----0----   X2   -------0----0----0---  X2  --------0----0----0--  X2  --|
B ----2----2----2------        -----4----4----4-----      ------5----5----5----      --|
E -------------------------------------------------------------------------------------|
      I've                          seen                        loneliness
E -------------------------------------------------------------------------------------|
A -------------------------------------------------------------------------------------|
D --------2----2-------        ---------2----2------      ----------2----2-----      --|
G ------0----0----0----   X2   -------0----0----0---  X2  --------0----0----0--  X4  --|
B ----2----2----2------        -----4----4----4-----      ------5----5----5----      --|
E -------------------------------------------------------------------------------------|
     She wrapped me up               with such                  tenderness

Et on recommence:
I've seen loneliness
She tied me down in her sweet caress.

De nouveau couplet:
Oh come in from the confines of your own mind my dear, because worry is all you'll find 
there it's clear.
And tomorrow will always come.
And tomorrow may well bring the sun.

De nouveau Refrain:
Yeah i've seen loneliness
She wrapped me up with such tenderness.
And i've seen happiness
She came round here yesterday
In a bright blue dress..

Voila, c'est plutôt facile, il faut bien sur écouter la chanson pour mieux comprendre le 
rythme et l'enchainement des paroles.

Bonne soirée
Tap to rate this tab
# A B C D E F G H I J K L M N O P Q R S T U V W X Y Z