Song name
# A B C D E F G H I J K L M N O P Q R S T U V W X Y Z

Ben Howard - Three Tree Town tab

-------------------------------------------------------------------------------
                             3 Tree Town - Ben Howard
-------------------------------------------------------------------------------

Tabbed by: Clark Williams
Email: clrk.williams@gmail.com

Tuning: CGCGGc

Capo: 5th Fret

So I saw the other 3 tree town tab come up and cannot make sense of it..

This one is 100% accurate.. It is a simple song to play, slight inconsistancies are fine 
with this song, you can

even here them in Bens recorded version, it adds to it


Things that you should know:

-your'e whole hand must be in front of the frett board as you use every finger including 
your thumb which may feel

strange.

-Keep your pinky on the 12 harmonic the whole song, only lightly touch the string for 
the best sound

-your thumb is used on the 7 harmonic later in the strum part, be loose on the 
strumming, for me the thumb is only

there to stop accedentally hitting an open string.



Intro:
c|-------------------------------------------------------------------------|
G|-------------------------------------------------------------------------|
G|-------------------------------------------------------------------------|
C|------<12>---<12>---<12>-----<12>----<12>---<12>-----<12>----------------|
G|------<12>---<12>---<12>-----<12>----<12>---<12>-----<12>----------------|
C|--9---------------9------9----------------9------9-----------------------|

c|-------------------------------------------------------------------------|
G|-------------------------------------------------------------------------|
G|-------------------------------------------------------------------------|
C|------<12>---<12>---<12>-----<12>----<12>---<12>-----<12>----------------|
G|------<12>---<12>---<12>-----<12>----<12>---<12>-----<12>----------------|
C|--11--------------11-----11---------------11-----11----------------------|

c|-------------------------------------------------------------------------|
G|-------------------------------------------------------------------------|
G|-------------------------------------------------------------------------|
C|------<12>---<12>---<12>-----<12>----<12>---<12>-----<12>----------------|
G|------<12>---<12>---<12>-----<12>----<12>---<12>-----<12>----------------|
C|--0---------------0------0----------------0------0-----------------------|

c|-------------------------------------------------------------------------|
G|-------------------------------------------------------------------------|
G|-------------------------------------------------------------------------|
C|------<12>---<12>---<12>-----<12>----<12>---<12>-----<12>----------------|
G|------<12>---<12>---<12>-----<12>----<12>---<12>-----<12>----------------|
C|--0---------------0------0----------------0------0-----------------------|

c|-------------------------------------------------------------------------|
G|-------------------------------------------------------------------------|
G|-------------------------------------------------------------------------|
C|------<12>---<12>---<12>-----<12>----------------------------------------|
G|------<12>---<12>---<12>-----<12>----------------------------------------|
C|--0---------------0------0-----------------------------------------------|

Verse:
c|-------------------------------------------------------------------------|
G|-------------------------------------------------------------------------|
G|-------------------------------------------------------------------------|
C|------<12>---<12>---<12>-----<12>----<12>---<12>-----<12>----------------|
G|------<12>---<12>---<12>-----<12>----<12>---<12>-----<12>----------------|
C|--9---------------9------9----------------9------9-----------------------|

c|-------------------------------------------------------------------------|
G|-------------------------------------------------------------------------|
G|-------------------------------------------------------------------------|
C|------<12>---<12>---<12>-----<12>----<12>---<12>-----<12>----------------|
G|------<12>---<12>---<12>-----<12>----<12>---<12>-----<12>----------------|
C|--11--------------11-----11---------------11-----11----------------------|

c|-------------------------------------------------------------------------|
G|-------------------------------------------------------------------------|
G|-------------------------------------------------------------------------|
C|------<12>---<12>---<12>-----<12>----<12>---<12>-----<12>----------------|
G|------<12>---<12>---<12>-----<12>----<12>---<12>-----<12>----------------|
C|--0---------------0------0----------------0------0-----------------------|

c|-------------------------------------------------------------------------|
G|-------------------------------------------------------------------------|
G|-------------------------------------------------------------------------|
C|------<12>---<12>---<12>-----<12>----<12>---<12>-----<12>----------------|
G|------<12>---<12>---<12>-----<12>----<12>---<12>-----<12>----------------|
C|--9---------------9------9----------------9------9-----------------------|

keep cycling through..


c|-------------------------------------------------------------------------|
G|-------------------------------------------------------------------------|
G|----------<12>-------<12>------------<12>--------<12>--------------------|
C|------<12>-------<12>------------<12>--------<12>------------------------|
G|-------------------------------------------------------------------------|
C|--9------------9-------------9-------------9-----------------------------|

c|-------------------------------------------------------------------------|
G|-------------------------------------------------------------------------|
G|----------<12>-------<12>------------<12>--------<12>--------------------|
C|------<12>-------<12>------------<12>--------<12>------------------------|
G|-------------------------------------------------------------------------|
C|--11-----------11------------11------------11----------------------------|

c|-------------------------------------------------------------------------|
G|-------------------------------------------------------------------------|
G|----------<12>-------<12>------------<12>--------<12>--------------------|
C|------<12>-------<12>------------<12>--------<12>------------------------|
G|-------------------------------------------------------------------------|
C|--0------------0-------------0-------------0-----------------------------|


c|--------------------<7>----------------------<7>-------------------------|
G|--------------------<7>----------------------<7>-------------------------|
G|--------------------<12>---------------------<12>------------------------|
C|------<12>---<12>---<12>-------<12>---<12>---<12>------------------------|
G|------<12>---<12>---<12>-------<12>---<12>---<12>------------------------|
C|-9-9-------9------9-------9-9-------9------9-----------------------------|

c|--------------------<7>----------------------<7>-------------------------|
G|--------------------<7>----------------------<7>-------------------------|
G|--------------------<12>---------------------<12>------------------------|
C|------<12>---<12>---<12>-------<12>---<12>---<12>------------------------|
G|------<12>---<12>---<12>-------<12>---<12>---<12>------------------------|
C|-11-11-----11-----11------11-11-----11-----11----------------------------|

c|--------------------<7>----------------------<7>-------------------------|
G|--------------------<7>----------------------<7>-------------------------|
G|--------------------<12>---------------------<12>------------------------|
C|------<12>---<12>---<12>-------<12>---<12>---<12>------------------------|
G|------<12>---<12>---<12>-------<12>---<12>---<12>------------------------|
C|-0-0-------0------0-------0-0-------0------0-----------------------------|


c|-------------------------------------------------------------------------|
G|-------------------------------------------------------------------------|
G|----------<12>-------<12>------------<12>--------<12>--------------------|
C|------<12>-------<12>------------<12>--------<12>------------------------|
G|-------------------------------------------------------------------------|
C|--9------------9-------------9-------------9-----------------------------|

c|-------------------------------------------------------------------------|
G|-------------------------------------------------------------------------|
G|----------<12>-------<12>------------<12>--------<12>--------------------|
C|------<12>-------<12>------------<12>--------<12>------------------------|
G|-------------------------------------------------------------------------|
C|--11-----------11------------11------------11----------------------------|

c|-------------------------------------------------------------------------|
G|-------------------------------------------------------------------------|
G|----------<12>-------<12>------------<12>--------<12>--------------------|
C|------<12>-------<12>------------<12>--------<12>------------------------|
G|-------------------------------------------------------------------------|
C|--0------------0-------------0-------------0-----------------------------|


c|--------------------<7>----------------------<7>-------------------------|
G|--------------------<7>----------------------<7>-------------------------|
G|--------------------<12>---------------------<12>------------------------|
C|------<12>---<12>---<12>-------<12>---<12>---<12>------------------------|
G|------<12>---<12>---<12>-------<12>---<12>---<12>------------------------|
C|-9-9-------9------9-------9-9-------9------9-----------------------------|

c|--------------------<7>----------------------<7>-------------------------|
G|--------------------<7>----------------------<7>-------------------------|
G|--------------------<12>---------------------<12>------------------------|
C|------<12>---<12>---<12>-------<12>---<12>---<12>------------------------|
G|------<12>---<12>---<12>-------<12>---<12>---<12>------------------------|
C|-11-11-----11-----11------11-11-----11-----11----------------------------|

c|--------------------<7>----------------------<7>-------------------------|
G|--------------------<7>----------------------<7>-------------------------|
G|--------------------<12>---------------------<12>------------------------|
C|------<12>---<12>---<12>-------<12>---<12>---<12>------------------------|
G|------<12>---<12>---<12>-------<12>---<12>---<12>------------------------|
C|-0-0-------0------0-------0-0-------0------0-----------------------------|
Tap to rate this tab
 
# A B C D E F G H I J K L M N O P Q R S T U V W X Y Z