Song name
# A B C D E F G H I J K L M N O P Q R S T U V W X Y Z

Ben Howard - Everything tab

-------------------------------------------------------------------------------
                             EVERYTHING Ė BEN HOWARD
-------------------------------------------------------------------------------
Tabbed by: PUZZLEDSOAP
Email:

Tuning: CGCGGC and capo on 3 covering top 5 strings
Because of the strange capo positioning all notes are NOT relative to the capo 
positioning, but to nut, i.e. 0th fret. Hope that makes sense and enjoy!


VERSE

e|----------------3-------------------------3-----------------------------|
B|-------------------3-----3-------------------3--------------------------|
G|-----------3----------3--------------3----------3-----------------------|
D|--------12-----------------------12-------------------------------------|
A|-----13-------13--------------13-------13-------------------------------|
E|------------------------------------------------------------------------|

e|------------------------------------------------------------------------|
B|------------------------------------------------------------------------|
G|------------------------------------------------------------------------|
D|---------5h7p5p3h5p3-------5h7p5p3h5p3----------------------------------|
A|----3h5-----------------3-----------------------------------------------|
E|------------------------------------------------------------------------|

e|----------------+10--------------------7p3------------------------------|
B|---------+10---------+10-------10---------------------------------------|
G|---------+10-------------------10---------------------------------------|
D|---------+10-------------------10---------------------------------------|
A|----/8----------------------7-------------------------------------------|
E|------------------------------------------------------------------------|

Pre-Chorus Bit

e|-----------------10---------------------------10------------------------|
B|---------------------10-----10--------------------10-----10-------------|
G|-----------3-------------3---------------3------------3-----------------|
D|--------3-----------------------------3---------------------------------|
A|-----8--------8--------------------7--------7---------------------------|
E|------------------------------------------------------------------------|

e|-----------------10----------------------------10-----------------------|
B|---------------------10-----10---------------------10-----10------------|
G|-----------3-------------3---------------3-------------3----------------|
D|--------3-----------------------------3-----------------------------X2--|
A|------------------------------------------------------------------------|
E|-----8--------8--------------------8--------8---------------------------|

Chorus

e|------------------------------------5h7p5p3-----------------------------|
B|------------------------------------------------------------------------|
G|----------+15---+12---+10-----------------------------------------------|
D|----------+15---+12---+10-----------------------------------------------|
A|----------+15---+12-----------------------------------------------------|
E|----0----------------------------0--------------------------------------|

e|------------------------------------------------------------------------|
B|------------------------------------------------------------------------|
G|--------3--3----------3--------3-----------3----------------------------|
D|--------3--3----------5/7------5-----------3h5--------------------------|
A|--------3--3----------3--------3-----------3-----------------------X4---|
E|-----3---------3------------3----------3--------------------------------|


e|------------------------------------------------------------------------|
B|------------------------------------------------------------------------|
G|-------7---5---3-h-5-------3h5------------------------------------------|
D|-------7---5---3-h-5-------3h5---------X2-------------------------------|
A|------------------------------------------------------------------------|
E|----0------------------0---------0--------------------------------------|

e|-----------------------------------------------|------------------------|
B|-----------------------------------------------|------------------------|
G|-------3---3---3-----------3-------------------|------------------------|
D|-------7---5---3-h-5-------3h5---------X2------|---------X2-------------|
A|-------3---3---3-----------3-------------------|------------------------|
E|----3------------------3---------3-------------|------------------------|



e|-----------------3------------------------------------------------------|
B|--------------------------3---------------------------------------------|
G|-----------3--------3---------------------------------------------------|
D|--------5--------------5--------X2--------------------------------------|
A|------------------------------------------------------------------------|
E|----2---------2---------------------------------------------------------|



Thatís all I can figure out for now, itís pretty much just this but repeated throughout 
with some variations on this but Iím sure youíll be able to work them out for yourself. 



************************************

| /   slide up
| \   slide down
| h   hammer-on
| p   pull-off
| ~   vibrato
| +   harmonic
| x   Mute note
| b   Bend
| pb  Pre-bend
| br  Bend release
| pbr Pre-bend release
| brb Bend release bend

************************************
Tap to rate this tab
# A B C D E F G H I J K L M N O P Q R S T U V W X Y Z