Song name
# A B C D E F G H I J K L M N O P Q R S T U V W X Y Z

Ben Howard - The Wolves tab

Tabbed By Haz *work in progress
Tunning -
1-c
2-g
3-g
4-c
5-g
6-c

Cappo 3rd Fret

intro
c---------------------------|
g---------------------------|
g---------------------------|
c--12-----10------12-----10-|
g---------------------------|
c---------------------------|

c12-10-----------12-10----------------10-------------10----|
g-------12-10-12-------12-10-12-10-12----12-10-10-12----12-|
g----------------------------------------------------------|
c12-12--12-12-12-12-12-12-12-12-10-10-10-10-10-10-10-10-10-|
g----------------------------------------------------------|
c----------------------------------------------------------|

Verse

c12-10-----------12-10----------------10-------------10----|
g-------12-10-12-------12-10-12-10-12----12-10-10-12----12-|
g----------------------------------------------------------|
c----------------------------------------------------------|
g----------------------------------------------------------|
c12-12--12-12-12-12-12-12-12-12-10-10-10-10-10-10-10-10-10-|


Thats all i have up to now still working at it.
let me know if you have any improvments
Tap to rate this tab
 
# A B C D E F G H I J K L M N O P Q R S T U V W X Y Z