Song name
# A B C D E F G H I J K L M N O P Q R S T U V W X Y Z

Ben Howard - The Wolves tab

                        Ben Howard - The Wolves
-----------------------------------------------------------------------------

TUNING: CGCGGC
CAPO 3RD FRET

This may not be 100% accurate but its atleast 95% accurate.

Intro: played over "woo's"

C|-----12-10p3----------| X2  |------------10-------| X2
G|-------------12-10-12-|     |----10-12p3----12-10-|
G|----------------------|     |---------------------|
C|--12-12-12---12-12-12-|     |-10-10-10---10-10-10-|
G|----------------------|     |---------------------|
C|----------------------|     |---------------------|


then...

C|----12-10p3----------| X2   |------------10-------| X2 (repeat throughout
G|----0--0----12-10-12-|      |----10-12p3-0--12-10-|     verse)
G|------------0--0--0--|      |----0--0-------0--0--|                     
C|---------------------|      |---------------------|
G|---------------------|      |---------------------|                       
C|-12-12-12---12-12-12-|      |-10-10-10---10-10-10-|


we lost faith...

C|----3-----------3------------| (work out the rhythm for yourself)
G|----3-----------3------------|
G|----3-----------3------------|
C|----3-----------3------------|
G|----8-----------10-----------|
C|----8-----------10-----------|

Chorus:

C|----3-----3--3--3--3--3--3--3--| X2  |----3-----3--3--3--3--3--3--3--| X2
G|----3-----3--3--3--3--3--3--3--|     |----3-----3--3--3--3--3--3--3--|
G|----3-----3--3--3--3--3--3--3--|     |----3-----3--3--3--3--3--3--3--|
C|----3-----3--3--3--10-3--3--3--|     |----3-----3--3--3--10-3--3--3--|
G|----10h12-12-12-12-x--12-10-12-|     |----10h12-12-12-12-x--12-10-12-|
C|-12-12----12-12-12-12-12-12-12-|     |-3--3-----3--3--3--3--3--3--3--|
Tap to rate this tab
# A B C D E F G H I J K L M N O P Q R S T U V W X Y Z