Song name
# A B C D E F G H I J K L M N O P Q R S T U V W X Y Z

Ben Howard - Soldiers tab

-------------------------------------------------------------------------------
                            SOLDIERS - Ben Howard
-------------------------------------------------------------------------------
Tabbed by: Fredrik Segelstad
E-mail: Fredrik.segel@gmail.com

Tuning: CFCGGC


Listen here for timing http://www.youtube.com/watch?v=bWhm-H7M8Us

Thanks to zetitooliveira on YouTube for letting me know the tuning


Intro:

c|--------------|   --5-----|   
F|--------------|   --------|
C|--0-----------|   --------|   
G|--------------|x2 --------|x4   A second guitar can repeat this through the 
G|------0-0---0-|   ------0-|     verse
C|----0-----0---|   ----0---|   

Verse:

c|---------------------------------------------5-----|
F|-7--12--11--9--11--7-----12--11--9--7--9-----0-----|
C|-0--0---0---0--0---0-----0---0---0--0--0-----0-----|
G|-0--0---0---0--0---0-----0---0---0--0--0-----0-----| Repeat
G|-0--0---0---0--0---0-----0---0---0--0--0-----0-----|
C|---------------------------------------------0-----|

Chorus:

c|--9-----9---9--9----7----|    ---9----9--9--9----7----5----------------|
F|--0-----0---0--0----9----|    ---0----0--0--0----9----0----------------|
C|--9-----9---9--9---11----|    ---9----9--9--9---11----0----------------|
G|--0-----10--9--7---------|x2  ---0---10--9--7---------0----------------|
G|-------------------------|    ------------------------0----------------|
C|-------------------------|    ------------------------0----------------|

End:

c|---0--|
F|--11--|
C|---0--|
G|---0--| Let it ring
G|---0--|
C|---0--|


************************************

| /   slide up
| \   slide down
| h   hammer-on
| p   pull-off
| ~   vibrato
| +   harmonic
| x   Mute note
| b   Bend
| pb  Pre-bend
| br  Bend release
| pbr Pre-bend release
| brb Bend release bend

************************************
Tap to rate this tab
 
# A B C D E F G H I J K L M N O P Q R S T U V W X Y Z