Song name
# A B C D E F G H I J K L M N O P Q R S T U V W X Y Z

Ben Howard - Only Love tab

        ------------------------------------------------------------
                             Only Love - Ben Howard
        ------------------------------------------------------------
Tabbed by: Neil Wicker
E-mail: wicker101@hotmail.co.uk

Tuning: Standard

Capo 1


Another Standard tuning Ben Howard tab. Been putting this one off for a while due to its 
complexity. Hopefully this will be a good starting place for people, I've only laid out 
the basic rhythm and finger picking, not all the variations Ben does throughout the song and live.

same as before here is an audio clip of me playing this version (slowed down a bit and 
guitar only for verse and chorus)
http://soundcloud.com/wicker101/only-love

s = guitar string slap

all notes relative to capo.

Verse:

          s           s        s          s
e|--------------------------------------------|
B|--------------------------------------------|
G|-----------7--7p4---------------7--7p4------|
D|---5--5-------5--5-----5---5-------5--5-----|
A|--------------------------------------------|
E|---0--0-------0--0-----0---0-------0--0-----|

              s              s
e|------------|-------------------|
B|------------|--10------10-------|
G|------------|--7-------7--------|
D|-----9---9--|-------------------|
A|10--10--10--|--10--10--10-------|
E|------------|-------------------|

Chorus:

e|---------------------------------------|
B|---------------------------------------|
G|-----0---0--0--------------------------|
D|-----9---7--12--12\9---9---12\9---9----|
A|-----7---5--10-------------------------|
E|----------------(8)--------(8)---------|

e|---------------------------------------|
B|---------------------------------------|
G|-----0---0--0--------------------------|
D|-----9---7--12-----12-----12-----12----| x2
A|-----7---5--10-----10-----10-----10----|
E|----------------8------8------8--------|



************************************

| /   slide up
| \   slide down
| h   hammer-on
| p   pull-off
| ~   vibrato
| +   harmonic
| x   Mute note
| b   Bend
| pb  Pre-bend
| br  Bend release
| pbr Pre-bend release
| brb Bend release bend

************************************
Tap to rate this tab
# A B C D E F G H I J K L M N O P Q R S T U V W X Y Z