Song name
# A B C D E F G H I J K L M N O P Q R S T U V W X Y Z

Ben Howard - Only Love tab

                                      Ben Howard - Only Love

                                              By JV

TUNING
A# F C G G C tuning with a 3rd fret capo
Tune the low E down to A#
Tune the A string down to F
Tune the D down to C
Keep the G as it is
Tune the B down to the same G as previous string
Tune high E down to C


MAIN RIFF

D-------------------------------------------12---12----------12--12--   
B-------------------------------------------12---12----------12--12--   
E--------5--2p0-----------5-2---------------12---12----------12--12--   
D--5-5----------4-5---5-------7-------9-9------------9---9-----------   
G--4-4------------4---4---------------7-7------------7---7-----------   
D--4-4-4----------4---4---------------7-7-7----------7---7-----------

INTERLUDE

D------------------------------  
B--0---0---0-------------------   
E--0---0---0-------------------   
D--5---4---9---12/9-9--12/9-9--  
G--4---2---7-------------------   
D--4---2---7-------------------


MAIN RIFF
Darling you're with me, always around me.
Only love, only love.
Darling I feel you, under my body.
Only love, only love.
Give me shelter, or show me heart
Come on love, Come on love.
Watch me fall apart, watch me fall apart.

INTERLUDE
And I'll be yours to keep.
A wind in the shadow, a whale song in the deep.
A wind in the shadow, a whale song in the deep.

MAIN RIFF
Darling you're with me, always around me.
Only love, only love.
Darling I feel you, under my body.
Only love, only love.
Give me shelter, or show me heart
Come on love, Come on love.
Watch me fall apart, watch me fall apart.

INTERLUDE
And I'll be yours to keep.
A wind in the shadow, a whale song in the deep.
A wind in the shadow, a whale song in the deep. 

MAIN RIFF
Darling I feel you, under my body
Darling you're with me, forever and always.
Give me shelter or show me heart.
And watch me fall apart, watch me fall apart.

BRIDGE - INTERLUDE INCREASING VOLUME 

MAIN RIFF (improvisation)
Only love love love, Only love love love, Only love love love.
Girl show me heart.
Come on love love love, Come on love love love, Come on love love love.
Watch me fall apart.
Come on love love love, Come on love love love, Come on love love love.
Girl showe me heart.
Show me love love love, Show me love love love, Show me love love
love.

MAIN RIFF
Darling I feel you under my body.
Darling you're with me forever and always.
Give me shelter or show me heart.
And watch me fall apart, watch me fall apart.
Tap to rate this tab
# A B C D E F G H I J K L M N O P Q R S T U V W X Y Z