Song name
# A B C D E F G H I J K L M N O P Q R S T U V W X Y Z

Ben Howard - Gracious tab

Gracious: Intro

This is basically the riff he plays through the entire song. If you know any parts, feel 
free to tell me. Thanks! I hope you Enjoy this! Great song by a great band!
P.S: I need help on the slide he does 0:13. I cab't seem to figure it out

Link:http://www.youtube.com/watch?v=Pg9VZ47n5sY

Tuning: CFCFAC

Capo on 2nd Fret

C---------------0--------------------------0---------------------0-----------|
A-----------------------0--------------------------0--------------------0----|
F---------4--------4---------------4----------4------------2--------2--------|
C------0--------------0---------0----------------0------0-------------0------|
F---4--------4---------------4---------4-------------0--------0--------------|
C----------------------------------------------------------------------------|

C---------------0-------------|
A------------------------0----|
F---------2--------2----------| REPEAT
C-----0---------------0-------|
F--0---------0----------------|
C-----------------------------|
Tap to rate this tab
# A B C D E F G H I J K L M N O P Q R S T U V W X Y Z