Song name
# A B C D E F G H I J K L M N O P Q R S T U V W X Y Z

Ben Howard - Only Love tab

Couldnt find tabs that worked for me, figured this out by listening so there may be some 
variations or small mistakes, but this will give you the jist :)sorry if there are any 
mistakes, first time tabbing!

p= pull off
\= slide down

Capo 3rd Fret - Tab Relative to Capo

Intro/Verse:
c|--------0-----------0-------------12--12--------12--12\-|
G|----------2p0---------2--0--------12--12--------12--12\-|
G|--------------------------------------------------------|
C|--5-5----------5--5---------0-9-9-----------9-9---------|
G|--------------------------------------------------------|
C|--5-5-5--------5--5--------5--9-9---------9-9-9---------|

Interlude:
c|-----------------------------|
G|---------------5\4--4-5\4--4-|
G|---------------5\4--4-5\4--4-|
C|--5--4--9--0-2---------------|
G|-----------------------------|
C|--5--4--9--0-2---------------|

c|-----------------------|
G|---------------4--4--4-|
G|---------------4--4--4-|
C|--5--4--9--0-2---------|
G|-----------------------|
C|--5--4--9--0-2---------|

There is a bass bit that is pretty easy to figure out, based around the 2nd fret on the 
lowest c string and the lowest g string.

Hope this tab was helpful :)
Tap to rate this tab
# A B C D E F G H I J K L M N O P Q R S T U V W X Y Z