Song name
# A B C D E F G H I J K L M N O P Q R S T U V W X Y Z

Ben Howard - Esmerelda tab

Ben Howard  Esmerelda

tabbed by Jasper121

live session: http://www.youtube.com/watch?v=gn1M2XJlhAg&feature=relmfu
official video: http://www.youtube.com/watch?v=UYUKsRL-YBM

Tuning: C G A# G F C (Tune D and B string down two steps from CGCGGC)
Capo on 7th (not low E string)

Intro/Verse
C|---0--0--0--0--0--0--0--0--0--0--0--0--0--0---------|
F|---5--5--5--5--5--5--5--5--5--5--5--5--5--5---------|
G|--0--0--0--0--0--0--0--0--0--0--0--0--0--0----------|
B|----4----4-----4--2--0---5-5-5-5-4-4-2-0---------| x2
G|-0----0-----0---------------------------------------|
C|----------------------------------------------------|

Then    
C|---0--0--0--0--0--0--0--0--0--0--0--0-0--0--0--0--0--0------|
F|---5--5--5--5--5--5--5--5--5--5--5--5--5--5--5--5--5--5------|
G|--0--0--0--0--0--0--0--0--0--0--0--0--2--2--2--2--2--2-------|
B|----4----4----4--2-0--5-5-5-5-5-5-5-5-4-4-4-4-4-4-4-4--------|
G|-0----0----0-------------------------------------------------|
C|-------------------------------------------------------------|

Oh Blinded, Now I see that I could not hold you. 
My orange tree lived in the darkened room 
From three words to share. 

Maybe you were free before my blackened wing covered you 
I took the sing from your song 
I made a bed where you don't belong. 

Chorus
C|----------------------------------------------------------|
F|-----------------------------------------------------------|
G|----0---0---0---0--0--0--0----0--0--0--0--0--0--0--0-------|
B|----0---0---0---0--0--0--0----0--0--0--0--0--0--0--0-------| x2
G|---0---0---0---0--0--0--0----0--0--0--0--0--0--0--0--------|
C|-10--10--10--10--9--9--9-0-2--2--2--2--4--4--5--5---------|

then
C|------------------------------|
F|-------------------------------|
G|---0--0--0--0--0--0--0--0------|
B|---0--0--0--0--0--0--0--0------|
G|--2--2--2--2--2--2--2--2-------|
C|-0--0--0--0--0--0--0--0--------|

Oh pull me, she fell beneath the wheels to help me up.
Black Sea, I failed to be the light you found in love.

Oh pull me, she fell beneath the wheels to help me up.
Black Sea, the monster killed the melody you loved.

Post-Chorus
C|---------------------------------|
F|----------------------------------|
G|-----0--0--0--0--0--0--0--0--0----|
B|-----0--0--0--0--0--0--0--0--0----|
G|----5--3--2--3--5--3--2--3--0-----|
C|--10-10-10-10-10-10-10-10---------|
And now I'm going places on my own 



Verse II

Blinded, now I see the death, moves amongst us 
And with such ease surround us 
These silent beasts so hard to bare. 

Lonely, oh no not me 
I have a grave to dig 
Fast moving feet 
You gave me light where it once was gone 
I made a bed, where we don't belong.

Repeat Chorus + Post-Chorus

Outro
C|---------------------------------------------------|
F|----------------------------------------------------|
G|---0--0--0--0--0--0--0--0--0--0--0--0--0--0--0--0---|
B|---0--0--0--0--0--0--0--0--0--0--0--0--0--0--0--0---|
G|--0--0--0--0--0--0--0--0--0--0--0--0--0--0--0--0----|
C|-2--2--2--2--7--5-10-10-10-10--9--9--7--5--2--2-----|

C|---------------------------------------------------|
F|----------------------------------------------------|
G|---0--0--0--0--0--0--0--0--0--0--0--0--0--0--0--0---|
B|---0--0--0--0--0--0--0--0--0--0--0--0--0--0--0--0---|
G|--0--0--0--0--0--0--0--0--0--0--0--0--0--0--0--0----|
C|-2--2--2--2--7--5-10-10-10-10--9--912--9--12-------|

C|----0--0--0--0--0--0--0--0--0--0--0--0-0--0--0--0--|
F|----0--0--0--0--0--0--0--0--0--0--0--0--0--0--0--0--|
G|---00-00-00-00-00-00-00-00-00-00-00-00-00-00-00-00--|
B|---0--0--0--0--0--0--0--0--0--0--0--0--0--0--0--0---|
G|--0--0--0--0--0--0--0--0--0--0--0--0--0--0--0--0----|
C|-2--2--2--2--7--5-10-10-10-10--9--9--7--5--2--2-----|

C|----0--0--0--0--0--0--0--0--0--0--0--0-0--0--0--0--|
F|----0--0--0--0--0--0--0--0--0--0--0--0--0--0--0--0--|
G|---00-00-00-00-00-00-00-00-00-00-00-00-00-00-00-00--|
B|---0--0--0--0--0--0--0--0--0--0--0--0--0--0--0--0---|
G|--0--0--0--0--0--0--0--0--0--0--0--0--0--0--0--0----|
C|-2--2--2--2--7--5-10-10-10-10--9--912--9--12-------|

last time
C|----0--0--0--0--0--0--0--0--0--0--0--0-0--0--0--0--|
F|----0--0--0--0--0--0--0--0--0--0--0--0--0--0--0--0--|
G|---00-00-00-00-00-00-00-00-00-00-00-00-00-00-00-00--|
B|---0--0--0--0--0--0--0--0--0--0--0--0--0--0--0--0---|
G|--0--0--0--0--0--0--0--0--0--0--0--0--0--0--0--0----|
C|-2--2--2--2--7--5-10-10-10-10-10-10-10-10-10-10-----|

C|----0--0--0--0--0--0---0~-----------------|
F|----0--0--0--0--0--0---0~------------------|
G|---00-00-00-00-00-00---0~------------------|
B|---0--0--0--0--0--0----0~------------------|
G|--0--0--0--0--0--0-----0~------------------|
C|-9--9--9--9--9--9--7-5-2~------------------|
Tap to rate this tab
# A B C D E F G H I J K L M N O P Q R S T U V W X Y Z