Song name
# A B C D E F G H I J K L M N O P Q R S T U V W X Y Z

Ben Howard - Esmerelda tab

==============================Ben Howard - Esmerelda==============================

This is my first tab, but I saw no one had wrote a tab for it..so I decided to work it 
out. Done by ear, corrections are welcome. :)
Capo: 7th

C  | -------------------------------------------------------'---------------------------------|
G. | ----7---7---7---7---5---5---3---3---8---8---8---10---7---5---3---0---7---0---7---0---7---|
C  |------------------------------------------------------------------------------------------|
G  |-------0---0---0---0---0---0---0---0---0---0---0---0---0---0---0---0---0---0---0---0---0--|
G  |-------0---0---0---0---0---0---0---0---0---0---0---0---0---0---0---0---0---0---0---0---0--|
A# |-------0---0---0---0---0---0---0---0---0---0---0---0---0---0---0---0---0---0---0---0---0--|


C.  |-------------------------------------|
G.  |---5---3---8---8---8---10---7--------|
C.  |-------------------------------------|
G.  |-0---0---0---0---0---0---0---0-------|x4
G.  |-0---0---0---0---0---0---0---0-------|
A#  |-0---0---0---0---0---0---0---0-------|




Chorus

C.  |-----10---10---10---10---9---9---9---0---0---2---2---4---4---5---5--------|
G.  |--------0----0----0----0----0----0---0---0---0---0---0---0---0---0--------|
C.  |--------0----0----0----0----0----0---0---0---0---0---0---0---0---0--------|
G.  |--------0----0----0----0----0----0---0---0---0---0---0---0---0---0--------|x4
G.  |--------------------------------------------------------------------------|
A#  |--------------------------------------------------------------------------|
Tap to rate this tab
# A B C D E F G H I J K L M N O P Q R S T U V W X Y Z