Song name
# A B C D E F G H I J K L M N O P Q R S T U V W X Y Z

Ben Howard - Oats In The Water tab

Ben Howard  Oats in The Water
tabbed by Jasper121

live version: http://www.youtube.com/watch?v=GbR8g55RfWw

Tuning: C G C G G C (Capo 2)
Or      D A D A A D (no Capo)

Intro/Verse:
c|---------------------------|
G|---------------------------|
G|---------------------------|
C|-------0----0-----0--------|
G|----5-----5-----5---(x4)---|
C|--0--0--0--0--0------------|

c|-------------------------------------------------------------|
G|-------------------------------------------------------------|
G|-------------------------------------------------------------|
C|-------0----0-----0-----0-----0-----0-------0----0---0-------|
G|----5-----5-----5---5/7-----7-----7----7/8-----8----8--------|
C|--0--0--0--0--0----0---0--0--0--0-----0---0--0--0------------|
                  
c|--------------------------------------------------------|            
G|--------------------------------------------------------|          
G|--------------------------------------------------------|          
C|------0-----------10-------------10------10------10-----|      
G|---8---8---8---/12-12p0-----10------10------10---------|           
C|--0-------0----------------10--10--10--10--10--10-------|          
                                                       
c|---------------------------------------|            
G|---------------------------------------|          
G|---------------------------------------|          
C|------10--------------8------8----8----|      
G|---/12-12p0-------8-----8-----8-------|           
C|-----------------8--8--8---8--8--8-----|
Then back to beginning

Go your way,
I'll take the long way 'round,
I'll find my own way down,
As I should.

And hold your gaze
There's coke in the Midas touch
A joke in the way that we rust,
And breathe again.

Pre-chorus:
c|------------------------5-----5------5-----5------|
G|--------------------------8-----8------8-----8----|
G|----------------------------0-----0------0-----0--|
C|--3---3--3--2---2--2---------0-----0------0-----0-|   x2
G|--3---3--3--2---2--2------------------------------|
C|--3---3--3--2---2--2---------0-----0------0-----0-|

And you'll find loss
And you'll fear what you found
When weather comes
Tearing down

Chorus:
c|---------------------------------------------------|
G|---------------------------------------------------|
G|------8-8------3-3----10-10------------------------|
C|------8-8------3-3----10-10---10-------------------|   x2
G|-------------------------------10-------------------|
C|---8----8---3---3---0----0--10---------------------|

There'll be oats in the water
There'll be birds on the ground
There'll be things you never asked her
Oh how they tear at you now

c|------------------------------------------------|
G|------------------------------------------------|
G|------------------------------------------------|
C|--8--8--8--8----7--7--7--7-------0-------0------|
G|--8--8--8--8----7--7--7--7-----5--5---5---5--5--|
C|--8--8--8--8----7--7--7--7----0------0------0---|

Then back to verse

Repeat verse
Repeat pre chorus
Repeat Chorus

Solo (strum throughout) 
c|--------10--------------10-----------------------------------|
G|----/12----12--10---/12----12--10------12-12-10-10fb-10fb-0--|
G|----/12----12--10---/12----12--10------12-12-10-10fb-10fb-0--|
C|-------------------------------------------------------------|
G|--0---------------0----------------10------------------------|
C|--0---------------0----------------10------------------------|

c|------------------------------------------------|
G|----8p0-8p0-0-----8p0-8p0-0---7-7-7--7--7--7----|
G|----8p0-8p0-0-----8p0-8p0-0---7-7-7--7--7--7----|
C|------------------------------------------------|
G|--8-----------8-8------------7-7-7--7--7--7-----|
C|--8-----------8-8------------7-7-7--7--7--7-----|

c|----0---10-10p12-12-12-12-10----------------------------|
G|----0---10-10p12-12-12-12-10------12-12-10-10fb-10fb-0--|
G|----0---10-10p12-12-12-12-10------12-12-10-10fb-10fb-0--|
C|--------------------------------------------------------|
G|-0----------------------------10------------------------|
C|-0----------------------------10------------------------|

c|------------------------------------------------|
G|----8p0-8p0-0-----8p0-8p0-0---7-7-7--7--7--7----|
G|----8p0-8p0-0-----8p0-8p0-0---7-7-7--7--7--7----|
C|------------------------------------------------|
G|--8-----------8-8------------7-7-7--7--7--7-----|
C|--8-----------8-8------------7-7-7--7--7--7-----|

c|---0--10-10p12-12-12-12-10-----------------------------------|
G|---0--10-10p12-12-12-12-10------12--10--10-10p12-12-12-12-10-|
G|---0--10-10p12-12-12-12-10------12--10--10-10p12-12-12-12-10-|
C|-------------------------------------------------------------|
G|-0--------------------------10-------------------------------|
C|-0--------------------------10-------------------------------|

c|------------------------------------------------|
G|--8--8-8-8p10-10-10-10-10-8--7--7-7p8-8-8-8-7---|
G|--8--8-8-8p10-10-10-10-10-8--7--7-7p8-8-8-8-7---|
C|------------------------------------------------|
G|--8--------------------------7------------------|
C|--8--------------------------7------------------|
Tap to rate this tab
 
# A B C D E F G H I J K L M N O P Q R S T U V W X Y Z