Song name
# A B C D E F G H I J K L M N O P Q R S T U V W X Y Z

Ben Howard - The Wolves tab

The Wolves – Ben Howard CAPO 3 – Tuning CGCGGC by Theo Bromfield

Intro:

 Oh Oh Oh Oh Oh, Oh Oh Oh Oh Oh, Oh Oh Oh Oh Oh, Oh Oh Oh Oh Oh, (No Guitar)
  

C|---9-7--------|---9-7--------|--------7-----|--------8------|------------|
G|------0-9-7-9-|------0-9-7-9-|---7-9-0--9-7-|---7-9-0--9-7--|------------|
G|--------------|--------------|--------------|---------------|------------|
C|--------------|--------------|--------------|---------------|----X1------|
G|--9-----------|--9-----------|--7-----------|--7------------|------------|
C|--------------|--------------|--------------|---------------|------------|

Oh Oh Oh Oh Oh, Oh Oh Oh Oh Oh, Oh Oh Oh Oh Oh, Oh Oh Oh Oh Oh, (Guitar)

Verse 1: 

C|---9-7--------|---9-7--------|--------7-----|--------8------|------------|
G|------0-9-7-9-|------0-9-7-9-|---7-9-0--9-7-|---7-9-0--9-7--|------------|
G|--------------|--------------|--------------|---------------|------------| 
C|--------------|--------------|--------------|---------------|----X3------|
G|--9-----------|--9-----------|--7-----------|--7------------|------------|
C|--------------|--------------|--------------|---------------|------------|

Falling from high places, falling through lost spaces, Now that we’re
Lonely, now that there’s nowhere to go. Watching from both sides, these
Clock towers burning up, I lost my time here, I lost my patience with it all

C|--------------|--------------|--------------|---------------|------------|
G|--------------|--------------|--------------|---------------|------------|
G|--------------|--------------|--------------|---------------|------------| 
C|--------------|--------------|--------------|---------------|---X1-------|
G|--------------|--------------|--------------|---------------|------------|
C|--9--7--------|--------------|--------------|---------------|------------|

We Lost faith, In the arms of love

Chorus: STRUMMING THIS PATTERN

C|---------------|--------------|--------------|---------------|-----------|
G|---------------|--------------|--------------|---------------|-----------|
G|---------------|--------------|--------------|---------------|-----------| 
C|--------7------|--------7-----|------7-------|--------7------|---X1------|
G|----7h9---9-7-9|---7h9---9-7-9|--7h9---9-7-9-|----7h9---9-7-9|-----------|
C|--9------------|--9-----------|-0------------|--0------------|-----------|


C|---------------|--------------|--------------|---------------|-----------|
G|---------------|--------------|--------------|---------------|-----------|
G|---------------|--------------|--------------|---------------|-----------|
C|--------7------|--------7-----|------7-------|--------7------|---X3------|
G|----7h9---9-7-9|---7h9---9-7-9|--7h9---9-7-9-|----7h9---9-7-9|-----------|
C|--9------------|--9-----------|-0------------|--0------------|-----------|

Where you been hiding lately, where you been hiding from the news? Because 
We’ve been fighting lately; We’ve been fighting with the wolves.
Oh with the wolves,

C|---------------|--------------|--------------|---------------|-----------|
G|---------------|--------------|--------------|---------------|-----------|
G|---------------|--------------|--------------|---------------|-----------| 
C|--------7------|--------7-----|------7-------|--------7------|---X1------|
G|----7h9---9-7-9|---7h9---9-7-9|--7h9---9-7-9-|----7h9--------|-----------|
C|--9------------|--9-----------|-0------------|--0------------|-----------|


 Oh with the wolves…                                   Red tongues and hands
Verse 9: STRUMMING THIS PATTERN (Emphasis on strings 1, 2 & 3)

C|---9-7--------|---9-7--------|--------7-----|--------8------|------------|
G|------0-9-7-9-|------0-9-7-9-|---7-9-0--9-7-|---7-9-0--9-7--|------------|
G|--------------|--------------|--------------|---------------|------------| 
C|--------------|--------------|--------------|---------------|----X1------|
G|--9-----------|--9-----------|--7-----------|--7------------|------------|
C|--------------|--------------|--------------|---------------|------------|

C|---9-7--------|---9-7--------|--------7-----|--------8------|------------|
G|------0-9-7-9-|------0-9-7-9-|---7-9-0--9-7-|---7-9-0--9-7--|------------|
G|--------------|--------------|--------------|---------------|------------|
C|--------------|--------------|--------------|---------------|----X3------|
G|--9-----------|--9-----------|--7-----------|--7------------|------------|
C|--------------|--------------|--------------|---------------|------------|

Falling from high places, falling through lost spaces, Now that we’re
Lonely, now that there’s nowhere to go. Watching from both sides, these
Clock towers burning up, I lost my mind here, 
I lost my patience with the lord. Oh with the Lord.

C|--------------|--------------|--------------|---------------|------------|
G|--------------|--------------|--------------|---------------|------------|
G|--------------|--------------|--------------|---------------|------------| 
C|--------------|--------------|--------------|---------------|---X1-------|
G|--------------|--------------|--------------|---------------|------------|
C|--9--7--------|--------------|--------------|---------------|------------|
 
We lost faith oh, in the arms of love

Chorus:

C|---------------|--------------|--------------|---------------|-----------|
G|---------------|--------------|--------------|---------------|-----------|
G|---------------|--------------|--------------|---------------|-----------| 
C|--------7------|--------7-----|------7-------|--------7------|---X1------|
G|----7h9---9-7-9|---7h9---9-7-9|--7h9---9-7-9-|----7h9---9-7-9|-----------|
C|--9------------|--9-----------|-0------------|--0------------|-----------|

Oh Love, Love, Love now

C|---------------|--------------|--------------|---------------|-----------|
G|---------------|--------------|--------------|---------------|-----------|
G|---------------|--------------|--------------|---------------|-----------|
C|--------7------|--------7-----|------7-------|--------7------|---X3------|
G|----7h9---9-7-9|---7h9---9-7-9|--7h9---9-7-9-|----7h9---9-7-9|-----------|
C|--9------------|--9-----------|-0------------|--0------------|-----------|

Where you been hiding lately, where you been hiding from the news? Cos 
We’ve been fighting lately; We’ve been fighting with the wolves.
Oh with the wolves, 

C|---------------|--------------|--------------|---------------|-----------|
G|---------------|--------------|--------------|---------------|-----------|
G|---------------|--------------|--------------|---------------|-----------| 
C|--------7------|--------7-----|------7-------|--------7------|---X1------|
G|----7h9---9-7-9|---7h9---9-7-9|--7h9---9-7-9-|----7h9--------|-----------|
C|--9------------|--9-----------|-0------------|--0------------|-----------|


 Oh with the wolves…                                   Red tongues and hands







Verse: (Strumming)

C|---9-7--------|---9-7--------|--------7-----|--------8------|------------|
G|------0-9-7-9-|------0-9-7-9-|---7-9-0--9-7-|---7-9-0--9-7--|------------|
G|--------------|--------------|--------------|---------------|------------| 
C|--------------|--------------|--------------|---------------|----X1------|
G|--9-----------|--9-----------|--7-----------|--7------------|------------|
C|--------------|--------------|--------------|---------------|------------|

Red Tongues and hands

C|--------------|---9-7--------|--------7-----|--------8------|------------|
G|--------------|------0-9-7-9-|---7-9-0--9-7-|---7-9-0--9-7--|------------|
G|--------------|--------------|--------------|---------------|------------| 
C|--------------|--------------|--------------|---------------|----X2------|
G|--------------|--9-----------|--7-----------|--7------------|------------|
C|--9-----------|--------------|--------------|---------------|------------|


 Oh Oh Oh Oh Oh, Oh Oh Oh Oh Oh, Oh Oh Oh Oh Oh, Oh Oh Oh Oh Oh,

C|--------------|--------------|--------------|---------------|------------|
G|--------------|--------------|--------------|---------------|------------|
G|--------------|--------------|--------------|---------------|------------| 
C|--------------|--------------|--------------|---------------|---X1-------|
G|--9--7--------|--------------|--------------|---------------|------------|
C|--9--7--------|--------------|--------------|---------------|------------|

We Lost Faith Oh, In the arms of love

Outro: strumming – 15 + are harmonics

C|--15+---------|--15+---------|--------------|---------------|------------|
G|--15+---------|--15+---------|--------------|---------------|------------|
G|--15+---------|--15+---------|--------------|---------------|------------|
C|--0-----------|--0-----------|--------------|---------------|---X6-------|
G|--15----------|--15----------|--------------|---------------|------------|
C|--12----------|--0-----------|--------------|---------------|------------|

C|--15+---------|--15+---------|--------------|---------------|------------|
G|--15+---------|--15+---------|--------------|---------------|------------|
G|--15+---------|--15+---------|--------------|---------------|------------| 
C|--0-----------|--0-----------|--------------|---------------|-X-Varies---|
G|--15----------|--15----------|--------------|---------------|------------|
C|--12----------|--0-----------|--------------|---------------|------------|

Love Love Love     ECHOED Love Love Love ----- Fade out
Tap to rate this tab
# A B C D E F G H I J K L M N O P Q R S T U V W X Y Z