Song name
# A B C D E F G H I J K L M N O P Q R S T U V W X Y Z

Ben Howard - Keep Your Head Up tab

Intro

   C                    C
e-------------------|-------------------|
b-------------------|-------------------|
g------0---2-----2--|------0---2-----2--|
D----2---2---2------|----2---2---2------|
A--3-----------3----|--3-----------3----|
E-------------------|-------------------|

   Em7                  G       G/f#
e-------------------|----------------0--|
b-------------------|----------------0--|
g------0---2-----2--|------0------0--0--|
D----2---2---2------|----2------2----2--|
A--2-----------2----|----------------3--|
E-------------------|--2------3------0--|

   C                    C
e-------------------|-------------------|
b----------0-----0--|----------0--------|
g------0------------|------0-----2\0----|
D----2---2---2------|----2---2-------2--|
A--3-----------3----|--3--------------3-|
E-------------------|-------------------|

   Em7                  G       G/f#
e-------------------|----------------0--|
b-------------------|----------------0--|
g------0---2-----2--|------0------0--0--|
D----2---2---2------|----2------2----2--|
A--2-----------2----|----------------3--|
E-------------------|--2------3------0--|

   C                    C                 C6add9
e-------------------|--------------------|-(3)--|
b----------0-----0--|----------0-------0-|--3---|
g------0------------|------0-----0-----0-|--2---|
D----2---2---2------|----2---2-----2---2-|--2---|
A--3-----------3----|--3-------------3-3-|--3---|
E-------------------|--------------------|------|
Tap to rate this tab
# A B C D E F G H I J K L M N O P Q R S T U V W X Y Z