Song name
# A B C D E F G H I J K L M N O P Q R S T U V W X Y Z

Ben Howard - Figure 8 tab

-----------------------------------------------------------------------------------
                                 Ben Howard - Figure 8 (Ellie Goulding Cover)
-----------------------------------------------------------------------------------
Yo! This is my first tab ever made, so think again before you say something. Thanks!

If it says for example <7>, instead for just 7, it means that you should put you 
finger just really light on the
 string on the seventh fret. BUT not in the middle of the metal-pins. Your should 
put it right over the one highest
 on the neck. Watch when Ben Howard play it and you'll get it. Put the whole 
finger over 5 strings at once!

Good luck and sorry for my bad english!// "FurtherAway" from Sweden

Tuning: CGCGGC (Open C)

INTRO:
C|----------------------------|
G|----------------------------|
G|----------------------------|
C|----------------------------| 
G|--7~---------5~---------3~--|
C|--7~---------5~---------3~--|


C|---------------------------------------|
G|---------------------------------------|
G|---------------------------------------|
C|---------------------------------------|  x 2
G|--7~---------5~---------3~---------5~--|
C|--7~---------5~---------3~---------5~--|


C|-----------------|
G|-----------------|
G|-----------------|
C|-----------------|
G|--3~---------5~--|
C|--3~---------5~--|

  "Chase your love around figure 8..........."
C|---------<12>---------------<12>--------------<7>--------------<7>--------|
G|----------------<12>---------------<12>--------------<7>--------------<7>-|
G|----<12>---------------<12>---------------<7>--------------<7>------------|
C|--<12>--------<12>---<12>---------12>---<7>--------<7>---<7>--------<7>---|  x 6
G|--------------------------------------------------------------------------|
C|-0------0----0------0------0----0------7-----7----7-----5-----5----5------|


C|--------------------|
G|---------<5>----<5>-|
G|-----<5>------------|
C|--<5>---------<5>---| x 4
G|--------------------|
C|-3------3----3------|

NOTE: When the fingerpicking starts, start quietly and work it up.
C|---------------------------------------------------------------------------------------------|
G|----------------0-----------------------------------------------------------------<7>----<7>-|
G|--------------------0---------------------------------------------------------<7>------------|
C|----------------------------------------------------------------------------<7>--------<7>---| 
G|--7~---------5~---------3~---------5~--------7~--------5~--------3~--------------------------|
C|--7~---------5~---------3~---------5~--------7~--------5~--------3~--------5-----5----5------|


C|---------------------------------------------------------------------------------------|
G|--------<7>----<7>-------<5>----<5>-------<5>----<5>-------<7>----<7>-------<7>----<7>-|
G|----<7>--------------<5>--------------<5>--------------<7>--------------<7>------------|
C|--<7>--------<7>---<5>--------<5>---<5>--------<5>---<7>--------<7>---<7>--------<7>---|
G|---------------------------------------------------------------------------------------|
C|-5-----5----5-----3-----3----3-----3-----3----3-----5-----5----5-----5-----5----5------|


C|---------<12>---------------<12>--------------<7>--------------<7>--------|
G|----------------<12>---------------<12>--------------<7>--------------<7>-|
G|----<12>---------------<12>---------------<7>--------------<7>------------|
C|--<12>--------<12>---<12>--------<12>---<7>--------<7>---<7>--------<7>---|   x 6
G|--------------------------------------------------------------------------|
C|-0------0----0------0------0----0------7-----7----7-----5-----5----5------|


C|-----------------------------------------------------------------------|
G|---------<5>----<5>-------<5>----<5>-------<7>----<7>-------<7>----<7>-|
G|-----<5>--------------<5>--------------<7>--------------<7>------------|
C|---<5>--------<5>---<5>--------<5>---<7>--------<7>---<7>--------<7>---| x 4
G|-----------------------------------------------------------------------|
C|--3-----3----3-----3-----3----3-----5-----5----5-----5-----5----5------|


C|-------------------------------------|
G|---------<7>----<7>-------<7>----<7>-|
G|-----<7>--------------<7>------------|
C|---<7>--------<7>---<7>--------<7>---| 
G|-------------------------------------|
C|--5-----5----5-----5-----5----5------|


C|---------<12>---------------<12>--------------<7>--------------<7>--------|
G|----------------<12>---------------<12>--------------<7>--------------<7>-|
G|----<12>---------------<12>---------------<7>--------------<7>------------|
C|--<12>--------<12>---<12>--------<12>---<7>--------<7>---<7>--------<7>---|   x 6
G|--------------------------------------------------------------------------|
C|-0------0----0------0------0----0------7-----7----7-----5-----5----5------|


C|-----------------------------------------------------------------------|
G|---------<5>----<5>-------<5>----<5>-------<7>----<7>-------<7>----<7>-|
G|-----<5>--------------<5>--------------<7>--------------<7>------------|
C|---<5>--------<5>---<5>--------<5>---<7>--------<7>---<7>--------<7>---| x 4
G|-----------------------------------------------------------------------|
C|--3-----3----3-----3-----3----3-----5-----5----5-----5-----5----5------|


C|-------------------------------------|
G|---------<7>----<7>-------<7>----<7>-|
G|-----<7>--------------<7>------------|
C|---<7>--------<7>---<7>--------<7>---| 
G|-------------------------------------|
C|--5-----5----5-----5-----5----5------|


C|---------<12>---------------<12>--------------<7>--------------<7>--------|
G|----------------<12>---------------<12>--------------<7>--------------<7>-|
G|----<12>---------------<12>---------------<7>--------------<7>------------|
C|--<12>--------<12>---<12>---------12>---<7>--------<7>---<7>--------<7>---|  x 11
G|--------------------------------------------------------------------------|
C|-0------0----0------0------0----0------7-----7----7-----5-----5----5------|

OUTRO:
C|-----------------------------------------------------------------------|
G|---------<5>----<5>-------<5>----<5>-------<7>----<7>-------<7>----<7>-|
G|-----<5>--------------<5>--------------<7>--------------<7>------------|
C|---<5>--------<5>---<5>--------<5>---<7>--------<7>---<7>--------<7>---| x 4
G|-----------------------------------------------------------------------|
C|--3-----3----3-----3-----3----3-----5-----5----5-----5-----5----5------|


C|--------------------------------------------------<7>--------------------------------------|
G|---------<7>----<7>-------<7>----<7>---------<7>-------------------------------------------|
G|-----<7>--------------<7>------------------<7>---------------------------------------------|
C|---<7>--------<7>---<7>--------<7>-------<7>-----------------------------------------------| 
G|-------------------------------------------------------------------------------------------|
C|--5-----5----5-----5-----5----5-------7~---------------------------------------------------|

Planing on putting "Master" by Ben Howard on a tab!
See you!
Tap to rate this tab
# A B C D E F G H I J K L M N O P Q R S T U V W X Y Z