Song name
# A B C D E F G H I J K L M N O P Q R S T U V W X Y Z

Ben Howard - Gracious tab

This is my first tab.

tuning: CFCFGC 

capo on 2nd fret


C-----------0------------------0-------|
G------0-----------------0-------------|
F-----------------4------------------4-|
C----0----------0------0-----------0---|
F--4------4---4------4------4----4-----|
C--------------------------------------|

C-----------0--------------------------0--------|
G------0------------------------------------0---|
F-----------------4------2-h4-p2-p0------0------|
C----0----------0--------------------0----------|
F--0------0---0------0--------------------------|
C-----------------------------------------------|

C-----------0------------------0-------|
G------0-----------------0-------------|
F-----------------4------------------4-|
C----0----------0------0-----------0---|
F--4------4---4------4------4----4-----|
C--------------------------------------|

C-----------0------------------0-------|
G------0-----------------0-------------|
F-----------------4------------------4-|   x2
C----0----------0------0-----------0---|
F--0------0---0------0------0----0-----|
C--------------------------------------|


Tap to rate this tab
# A B C D E F G H I J K L M N O P Q R S T U V W X Y Z