Song name
# A B C D E F G H I J K L M N O P Q R S T U V W X Y Z

Ben Howard - Keiko tab

Hi! It's har to make a tab for this song, so i made a turorial on youtube... It's my 
first tutorial ever, and i'm from Sweden, so please be kind! I hope you like it! I'll putt 
the basic-chords here if you can't here what i say or something...

Tutorial: http://www.youtube.com/watch?v=i314vFMYrO8

INTRO:
C|--------------------------------------------------------|
G|--------------------------------------------------------|
G|--------------------------------------------------------|
C|--0~---------3~---------7~--------5~--------------------|
G|--5~---------3~---------7~--------5~--------------------|
C|--0~---------3~---------7~--------5~--------------------|

CHORUS
C|--------------------------------------------------------|
G|--------------------------------------------------------|
G|--------------------------------------------------------|
C|--7~-----p12-x3---------3~--------5~--------------------|
G|--7~--------------------3~--------5~--------------------|
C|--7~--------------------3~--------5~--------------------|

Like I said, it's impossible to make a tab for this, with all the drumming in it. So 
watch the tutorial, put in a comment, and have fun!

//FurtherAway from Sweden
Tap to rate this tab
# A B C D E F G H I J K L M N O P Q R S T U V W X Y Z