Song name
# A B C D E F G H I J K L M N O P Q R S T U V W X Y Z

Ben Howard - I Forget Where We Were tab

-------Ben Howard - I Forget Where We Were-------

Hi! I just want to recomend all of you to play this song with your hand over the neck,
instead of under. Watch the live-videos of this song and you'll know what i mean. Kind of
tricky to play at the beginning, but be patient (spelling?)! I've also made a bad 
tutorial for this, if you prefere a tutorial instead of tabs. Have fun!

Tutorial: http://www.youtube.com/watch?v=RR8nhpphFqU

Tuning: CGGCAD (from 1st to 6th)

INTRO/MAINRIFF

C|------0---0---------0---0------------------------------------------|
G|------2---2---------2---2-----------9/10/9--7--0---0--0--0--0--0---|
G|--0-0-0---0-----0-0-0---0-----0--0--0-------0--0---0--0--0--0--0---|
C|--0-0-0---0-----0-0-0---0-----0--0--0-------0--0---0--0--0--0--0---|
A|--3-3-3---3-2/4-7-7-7---7-5/7-10-10-10------10-10--10-10-10-10-10--|
D|--3-3-------2/4-7-7-------5/7-10-10----------------9--9-----9--9---|

C|------0---0---------0---0------------------------------------------|    X2
G|------2---2---------2---2---5/4-----4-----4-----4------------------|
G|--0-0-0---0-----0-0-0---0---0-0-----0-----0-----0------------------|
C|--0-0-0---0-----0-0-0---0-0-0-0-----0-----0-----0------------------|
A|--3-3-3---3-2/4-7-7-7---7-7-7/5-----5-----5-----5------------------|
D|--3-3-------2/4-7-7-------7-7/5-----5-----5-----5------------------|


VERSE
         (NOTE: Just don't play the 7th fret  V)
C|------0---0---------0---0------------------------------------------|
G|------2---2---------2---2-----------9/10/9--0--0---0--0--0--0--0---|
G|--0-0-0---0-----0-0-0---0-----0--0--0-------0--0---0--0--0--0--0---|    X3
C|--0-0-0---0-----0-0-0---0-----0--0--0-------0--0---0--0--0--0--0---|
A|--3-3-3---3-2/4-7-7-7---7-5/7-10-10-10------10-10--10-10-10-10-10--|
D|--3-3-------2/4-7-7-------5/7-10-10----------------9--9-----9--9---|

C|------0---0---------0---0------------------------------------------|
G|------2---2---------2---2---5/4-----4-----4-----4------------------|
G|--0-0-0---0-----0-0-0---0---0-0-----0-----0-----0------------------|
C|--0-0-0---0-----0-0-0---0-0-0-0-----0-----0-----0------------------|   X1
A|--3-3-3---3-2/4-7-7-7---7-7-7/5-----5-----5-----5------------------|
D|--3-3-------2/4-7-7-------7-7/5-----5-----5-----5------------------|

C|------0---0---------0---0------------------------------------------|
G|------2---2---------2---2-----------9/10/9--7--0---0--0--0--0--0---|
G|--0-0-0---0-----0-0-0---0-----0--0--0-------0--0---0--0--0--0--0---|
C|--0-0-0---0-----0-0-0---0-----0--0--0-------0--0---0--0--0--0--0---|
A|--3-3-3---3-2/4-7-7-7---7-5/7-10-10-10------10-10--10-10-10-10-10--|
D|--3-3-------2/4-7-7-------5/7-10-10----------------9--9-----9--9---|

C|------0---0---------0---0------------------------------------------|
G|------2---2---------2---2---5/4-----4-----4-----4------------------|
G|--0-0-0---0-----0-0-0---0---0-0-----0-----0-----0------------------|
C|--0-0-0---0-----0-0-0---0-0-0-0-----0-----0-----0------------------|
A|--3-3-3---3-2/4-7-7-7---7-7-7/5-----5-----5-----5------------------|
D|--3-3-------2/4-7-7-------7-7/5-----5-----5-----5------------------|

SOME KIND PRE-CHOURS
(Hello love....)
C|-------------------------------------------------------------------|
G|-------------------------------------------------------------------|
G|-------------------------------------------------------------------|
C|-------------------------------------------------------------------|
A|-3-------------------------------------------------------------3---|
D|-3--------10--9-----15----------10--14--15---------10---9------3---|
(Cuz I.....) (NOTE: Don't care about the numbers of strums, just listen to the song and
you'll hear.)
C|-------------------------------------------------------------------|
G|-0~---------0~--------0~----0~---0~-0-0-0-0-0-0-0-0-0-0-0-0-0-0-0--|
G|-0~---------0~--------0~----0~---0~-0-0-0-0-0-0-0-0-0-0-0-0-0-0-0--|
C|-0~---------0~--------0~----0~---0~-0-0-0-0-0-0-0-0-0-0-0-0-0-0-0--|
A|-3~---------3~--------7~----5~---3~-3-3-3-3-3-3-3-3-3-3-3-3-3-3-3--|
D|-3~---------3~--------7~----5~---3~-3-3-3-3-3-3-3-3-3-3-3-3-3-3-3--|

C|-------------------------------------------------------------------|
G|-------------------------------------------------------------------|
G|-0-0-0-0-0-0-0-0-0-0-0-0-0-0---0---0---0---0---0----0----0----0----|
C|-0-0-0-0-0-0-0-0-0-0-0-0-0-0---0---0---0---0---0----0----0----0----|
A|-7-7-7-7-7-7-5-5-5-5-5-5-5-3---3---3---3---3---3----3----3----3----|
D|-7-7-7-7-7-7-5-5-5-5-5-5-5-3---3---3---3---3---3----3----3----3----|

VERSE
         (NOTE: Just don't play the 7th fret  V)
C|------0---0---------0---0------------------------------------------|
G|------2---2---------2---2-----------9/10/9--0--0---0--0--0--0--0---|
G|--0-0-0---0-----0-0-0---0-----0--0--0-------0--0---0--0--0--0--0---|
C|--0-0-0---0-----0-0-0---0-----0--0--0-------0--0---0--0--0--0--0---|    X3
A|--3-3-3---3-2/4-7-7-7---7-5/7-10-10-10------10-10--10-10-10-10-10--|
D|--3-3-------2/4-7-7-------5/7-10-10----------------9--9-----9--9---|

C|------0---0---------0---0------------------------------------------|
G|------2---2---------2---2---5/4-----4-----4-----4------------------|
G|--0-0-0---0-----0-0-0---0---0-0-----0-----0-----0------------------|    X1
C|--0-0-0---0-----0-0-0---0-0-0-0-----0-----0-----0------------------|
A|--3-3-3---3-2/4-7-7-7---7-7-7/5-----5-----5-----5------------------|
D|--3-3-------2/4-7-7-------7-7/5-----5-----5-----5------------------|

C|------0---0---------0---0------------------------------------------|
G|------2---2---------2---2-----------9/10/9--0--0---0--0--0--0--0---|
G|--0-0-0---0-----0-0-0---0-----0--0--0-------0--0---0--0--0--0--0---|    X1
C|--0-0-0---0-----0-0-0---0-----0--0--0-------0--0---0--0--0--0--0---|
A|--3-3-3---3-2/4-7-7-7---7-5/7-10-10-10------10-10--10-10-10-10-10--|
D|--3-3-------2/4-7-7-------5/7-10-10----------------9--9-----9--9---|

C|------0---0---------0---0------------------------------------------|
G|------2---2---------2---2---5/4-----4-----4-----4------------------|
G|--0-0-0---0-----0-0-0---0---0-0-----0-----0-----0------------------|
C|--0-0-0---0-----0-0-0---0-0-0-0-----0-----0-----0------------------|    X1
A|--3-3-3---3-2/4-7-7-7---7-7-7/5-----5-----5-----5------------------|
D|--3-3-------2/4-7-7-------7-7/5-----5-----5-----5------------------|

SOME KIND PRE-CHOURS
(Hello love....)
C|-------------------------------------------------------------------|
G|-------------------------------------------------------------------|
G|-------------------------------------------------------------------|
C|-------------------------------------------------------------------|
A|-3-------------------------------------------------------------3---|
D|-3--------10--9-----15----------10--14--15---------10---9------3---|
    (NOTE: Don't care about the numbers of strums, just listen to the song and you'll hear.)
C|-------------------------------------------------------------------|
G|-0~---------0~--------0~----0~---0~-0-0-0-0-0-0-0-0-0-0-0-0-0-0-0--|
G|-0~---------0~--------0~----0~---0~-0-0-0-0-0-0-0-0-0-0-0-0-0-0-0--|
C|-0~---------0~--------0~----0~---0~-0-0-0-0-0-0-0-0-0-0-0-0-0-0-0--|
A|-3~---------3~--------7~----5~---3~-3-3-3-3-3-3-3-3-3-3-3-3-3-3-3--|
D|-3~---------3~--------7~----5~---3~-3-3-3-3-3-3-3-3-3-3-3-3-3-3-3--|

C|-------------------------------------------------------------------|
G|-------------------------------------------------------------------|
G|-0-0-0-0-0-0-0-0-0-0-0-0-0-0-0-0-0-0-0-0-0-0-0-0-0-0-0-0-0-0-0-0-0-|
C|-0-0-0-0-0-0-0-0-0-0-0-0-0-0-0-0-0-0-0-0-0-0-0-0-0-0-0-0-0-0-0-0-0-|     X3
A|-7-7-7-7-7-7-5-5-5-5-5-5-5-3-3-3-3-3-3-3-3-3-3-3-3-3-3-3-3-3-3-3-3-|
D|-7-7-7-7-7-7-5-5-5-5-5-5-5-3-3-3-3-3-3-3-3-3-3-3-3-3-3-3-3-3-3-3-3-|

C|--------------------------------------------------------------------|
G|--------------------------------------------------------------------|
G|-0-0-0-0-0-0-0-0-0-0-0-0-0-0-0-0-0-0-0-0--0--0--0--0--0--0--0--0--0-|
C|-0-0-0-0-0-0-0-0-0-0-0-0-0-0-0-0-0-0-0-0--0--0--0--0--0--0--0--0--0-|     X1
A|-7-7-7-7-7-7-5-5-5-5-5-5-5-10-10-10-10-10-10-10-10-10-10-10-10-10-10|
D|-7-7-7-7-7-7-5-5-5-5-5-5-5-10-10-10-10-9--9--9--9--9--9--9--9--9--9-|

C|---------------------------------------------------------------------|
G|---------------------------------------------------------------------|
G|-0-0-0-0-0-0-0-0-0-0-0-0-0-0-0-0-0-0-0--0--0--0--0--0--0--0--0--0--0-|
C|-0-0-0-0-0-0-0-0-0-0-0-0-0-0-0-0-0-0-0--0--0--0--0--0--0--0--0--0--0-|    X1
A|-7-7-7-7-7-7-5-5-5-5-5-5-5-10-10-9-9-15-15-15-15-15-15-15-15-15-15-15|
D|-7-7-7-7-7-7-5-5-5-5-5-5-5-10-10-9-9-15-15-15-15-15-15-15-15-15-15-15|

OUTRO/MAINRIFF

C|------0---0---------0---0------------------------------------------|
G|------2---2---------2---2-----------9/10/9--7--0---0--0--0--0--0---|
G|--0-0-0---0-----0-0-0---0-----0--0--0-------0--0---0--0--0--0--0---|
C|--0-0-0---0-----0-0-0---0-----0--0--0-------0--0---0--0--0--0--0---|    X3
A|--3-3-3---3-2/4-7-7-7---7-5/7-10-10-10------10-10--10-10-10-10-10--|
D|--3-3-------2/4-7-7-------5/7-10-10----------------9--9-----9--9---|

C|------0---0---------0---0------------------------------------------|
G|------2---2---------2---2---5/4-----4-----4-----4------------------|
G|--0-0-0---0-----0-0-0---0---0-0-----0-----0-----0------------------|
C|--0-0-0---0-----0-0-0---0-0-0-0-----0-----0-----0------------------|     X1
A|--3-3-3---3-2/4-7-7-7---7-7-7/5-----5-----5-----5------------------|
D|--3-3-------2/4-7-7-------7-7/5-----5-----5-----5------------------|

LAST TIME

C|-------------------------------------------------------------------|
G|-------------------------------------------------------------------|
G|-------------------------------------------------------------------|
C|-------------------------------------------------------------------|    X1
A|-3~-----------7~---------10~---10~-----3~------7~-----7/5~---------|
D|-3~-----------7~---------10~---9~------3~------7~-----7/5~---------|

Please leave a comment! :)

Cheers, Andreas/FurhterAway from Sweden
Tap to rate this tab
 
# A B C D E F G H I J K L M N O P Q R S T U V W X Y Z