Song name
# A B C D E F G H I J K L M N O P Q R S T U V W X Y Z

Ben Howard - Folloton Wood tab

There are already two versions of Folloton Wood
on here but neither of them are actually correct 
to what Ben actually plays, even though they
sound similar to the original. This tab is exactly what he plays live.
The strum pattern is easy enough to pick up once
you've listened to the song enough times, so I've 
just tabbed the chord shapes, and this tab is not
meant to represent the strumming pattern.

Tuning: CFCGGC
Capo 3.

Intro and verses:
C|--0--0--0--0--|--0--0--0--0--|
G|--0--0--0--0--|--0--0--0--0--|
G|--0--0--0--0--|--0--0--0--0--|
C|--0--0--0--0--|--0--0--0--0--|
F|--7--7--7--6--|--4--4--4--6--|
C|--0--0--0--0--|--5--5--5--5--|

Chorus:
C|--0-----0-----|--0-----0-----|
G|--0-----0-----|--0-----0-----|
G|--0-----0-----|--0-----0-----|
C|--0-----0-----|--0-----0-----|
F|--9-----11----|--4-----4-----|
C|--11----12----|--5-----5-----|

Bridge:
C|--0--0--0--0--|--0--0--0--0--|
G|--0--0--0--0--|--0--0--0--0--|
G|--0--0--0--0--|--0--0--0--0--|
C|--0--0--0--0--|--0--0--0--0--|
F|--7--7--6--6--|--4--4--4--4--|
C|--0--0--0--0--|--5--5--5--5--|
Tap to rate this tab
# A B C D E F G H I J K L M N O P Q R S T U V W X Y Z