Song name
# A B C D E F G H I J K L M N O P Q R S T U V W X Y Z

Ben Howard - Oats In The Water tab

Ben Howard - Oats In the Water

Tuning:

DADAAD (Ben plays it this way)
CGCGGC with capo on 2 (He uses this tuning in a lot of other songs)


Intro/Verse

|---------------------------|8x
|---------------------------|
|---------------------------|
|--------0--------0------0--|
|----5--------5--------5----|
|--0---0----0---0----0------|

|---------------------------|---------------------------|------------------------------------|
|---------------------------|---------------------------|------------------------------------|
|---------------------------|---------------------------|------------------------------------|
|--------0--------0------0--|--------0--------0------0--|--------0--------0------0--------0--|
|----5--------5--------5----|----7--------7--------7----|----8--------8--------8------8------|
|--0---0----0---0----0------|--0---0----0---0----0------|--0---0----0---0----0------0---0----|

|-----------------------------------------------------------------|
|-----------------------------------------------------------------|
|-----------------------------------------------------------------|
|------10-------------------10-----------10-------10----------10--|
|--/12----12p(1)0-----10-----------10----------10-------10--------|
|------------------10----10-----10----10----10-------10----10-----|

|--------------------------------------------------------------------|
|--------------------------------------------------------------------|
|--------------------------------------------------------------------|
|------10----------------8--------8------8--------8--------8------8--|
|--/12----12p(1)0----8--------8--------8------8--------8--------8----|
|------------------8---8----8---8----8------8---8----8---8----8------|


Pre Chorus

       D*     D
|------------------5-----5--------5-----5----|-------------------5-----5--------5-----5----|
|--------------------8-----8--------8-----8--|---------------------8-----8--------8-----8--|
|------3------2--------0-----0--------0------|-------3------2--------0-----0--------0------|
|----3-3----2-2------------------------------|-----3-3----2-2------------------------------|
|----3-3----2-2------------------------------|-----3-3----2-2------------------------------|
|--3------2------0--------------0------------|---3------2------0--------------0------------|

Chorus

       D      D          D             D           D      D          D             D
|-------------------------------------------|-------------------------------------------|--------|
|-------------------------------------------|-------------------------------------------|--------|
|----8-8----3-3---10(12)*10(12)-------------|----8-8----3-3---10(12)-10(12)-------------|--------|
|----8-8----3-3---10(12)-10(12)-----10-10---|----8-8----3-3---10(12)-10(12)-----10-10---|--8--7--|
|------5------3----------0----------10-10---|------5------3----------0----------10-10---|--8--7--|
|--5------3------0---------------10---(10)--|--5------3------0---------------10---(10)--|--8--7--|


D*              Downstroke
10(12)*         Ben varies between the 10th and 12th fret
Tap to rate this tab
 
# A B C D E F G H I J K L M N O P Q R S T U V W X Y Z