Song name
# A B C D E F G H I J K L M N O P Q R S T U V W X Y Z

Ben Howard - White Lights tab

Ben Howard - White Lights


As requested by Wes
Tabbed from youtube clips of Ben's live O2 academy performance
Tuning is in DADAAD  (a whole step up from his normal CGCGGC)
Please rate if you like it :)


Intro 


D|--------------------------------------------------4s2-2p0--|
A|--0h2------------0h2------------0h2------------------------|
A|------------------------------------------0----------------|
D|--0h2--------4---0h2--------2---0h2s4--4----------4s2-2p0--|
A|----------4--------------2---------------------------------|
D|-------4--------------2-------------0----------0-----------|




D|----------------------------------------------0------------|
A|--0h2------------0h2-------------0h2------------0----------|
A|--------------------------------------------------0--------|
D|--0h2--------4---0h2--------2----0h2s4--------------4------|
A|----------4--------------2---------------------------------|
D|-------4--------------2--------------0---------------------|





Verse 


D|-----------------------------------------------------------|
A|--0h2-------------0h2---------------0h2--------------------|
A|-----------------------------------------------------------|
D|--0h2---------4---0h2----------2----0h2s4---4-----------4--|
A|--------------4----------------2---------------------------|
D|-------4----------------2---------------0--------0-0-0-----|

      I know my dear so painfully clear I know



D|-----------------------------------------------------------|
A|--0h2-------------0h2---------------0h2--------------------|
A|-----------------------------------------------------------|
D|--0h2---------4---0h2----------2----0h2s4---4-----------4--|
A|--------------4----------------2---------------------------|
D|-------4----------------2---------------0---------0--0-----|

 but you always fear leaving barren lands to toil



D|-----------------------------------------------------------|
A|--0h2-------------0h2---------------0h2--------------------|
A|-----------------------------------------------------------|
D|--0h2---------4---0h2----------2----0h2s4---4-----------4--|
A|--------------4----------------2---------------------------|
D|-------4----------------2---------------0---------0--0-----|

  but I gave myself away so easily you would say I was a kid
                


D|-----------------------------------------------------------|
A|--0h2-------------0h2---------------0h2--------------------|
A|-----------------------------------------------------------|
D|--0h2---------4---0h2----------2----0h2s4---4--------------|
A|--------------4----------------2---------------------------|
D|-------4----------------2---------------0------------------|

but i'll always be a child through the harshness & the wildness
                               I will always be faced with ruin



D|-----------------------------------------------------------|
A|--0h2------------0h2------------0h2------------------------|
A|-----------------------------------------------------------|
D|--0h2--------4---0h2--------2---0h2s4-----4-------4s2-2p0--|
A|----------4--------------2----------------0----------------|
D|-------4--------------2-------------0-----------0----------|




D|-----------------------------------------------------------|
A|--0h2------------0h2-------------0h2-----------------------|
A|-----------------------------------------------------------|
D|--0h2--------4---0h2--------2----0h2s4----4----------4-----|
A|----------4--------------2---------------------------------|
D|-------4--------------2--------------0---------0--0--------|




D|-----------------------------------------------------------|
A|-----------------------------------------------------------|
A|-----------------------------------------------------------|
D|-----7---------------11---------------0--------------------|
A|--------7----------------11--------9--------9s7--7s5p0-----|
D|--7--------------11----------------0-----0-----------------|

 white light don't break her heart any more



D|-----------------------------------------------------------|
A|-----------------------------------------------------------|
A|-----------------------------------------------------------|
D|-----7---------------11---------------0--------------------|
A|--------7------------11------------9--------9s7--7s5p0-----|
D|--7--------------11----------------0-----0-----------------|

 bright light don't seem to bother her at all



D|-----------------------------------------------------------|
A|-----------------------------------------------------------|
A|-----------------------------------------------------------|
D|-----7---------------11---------------0--------------------|
A|-----7-------------------11--------9--------9s7--7s5p0-----|
D|--7--------------11----------------0-----0-----------------|

 white light don't break her heart any more



D|-----------------------------------------------------------|
A|-----------------------------------------------------------|
A|-----------------------------------------------------------|
D|-------7---------------11---------------0------------------|
A|----------7------------11------------9-----------9---------|
D|-0--7-----------7--11------------11--0-----0--0------------|

bright light don't seem to bother her at all



D|-----------------------------------------------------------|
A|-----------------------------------------------------------|
A|-----------------------------------------------------------|
D|----------------------------7------------4--------------2--|
A|--------9--------------7--------------------4-----------2--|
D|-----0--9-----------9--7-----------7--4----------4--2------|
 
  it all is well, all is good, the crows of eden which your
                                       blackbirds never could 



D|-----------------------------------------------------------|
A|-----------------------------------------------------------|
A|-----------------------------------------------------------|
D|-----------------------------------------------------------|
A|---------9-----------9-----------9-------------9-----------|
D|--0--0--------0--0--------0--0-------0-----0---------------|

 like you said they would



D|--------------------------------------0--------------0-----|
A|--------------------------------------0--------------0-----|
A|--------------------------------------0--------------0-----|
D|------4------------2--------------7---7--------------0-----|
A|------4------------2--------------7---7-----7s9--9---9-----|
D|--4----------4-2----------2-2s7-------7--7--0--------0-----|

     like you said they would x3



D|-----------------------0--------------0--------------0-----|
A|-----------------------0--------------0--------------0-----|
A|-----------------------0--------------0--------------0-----|
D|-----4-------------2---2----------7---7--------------0-----|
A|--------4----------2---2----------7---7-----7s9--9---9-----|
D|--4----------4-2-------2--2-2s7-------7--7--0--------0-----|

     like you said they would x3



D|---------0-------------0--------------0--------------0-----|
A|---------0-------------0--------------0--------------0-----|
A|---------0-------------0--------------0--------------0-----|
D|-----4---4---------2---2----------7---7--------------0-----|
A|-----4---4---------2---2----------7---7-----7s9--9---9-----|
D|--4------4---4-2-------2--2-2s7-------7--7--0--------0-----|

     like you said they would x3



D|---------0------------------------------------------0------|
A|---------0------------------------------------------0------|
A|---------0------------------------------------------0------|
D|-----4---4----------2--------------9------------9---9------|
A|-----4---4----------2--------------9------------9---9------|
D|--4------4----4-2----------2-2s9---------9--9-------9---9--|

     like you said they would x3



D|-----------------------------------------------------------|
A|-----------4-------------2p0-------------7p0---------9-----|
A|---------------------------------------------------0-------|
D|-----------------------------------------------------------|
A|-------4-------------2---------------7--------7s9----------|
D|----4----------4--2-----------2-2s7-------------0----------|




D|-----------------------------------------------------------|
A|--------7---7-------7---------7----------------------------|
A|------0-----------0---------0------------------------------|
D|-----------------------------------------------------------|
A|----9-----------9---------9--------------------------------|
D|-----------------------------------------------------------|




D|-----------------------------------------------------------|
A|-------------0h2---------------0h2-------------------------|
A|-----------------------------------------------------------|
D|---------4---0h2----------2----0h2s4---4------4s2--2p0-----|
A|---------4----------------2--------------------------------|
D|--4----------------2---------------0------0-0-0------------|

 I know my dear, so painfully clear of it all



D|-----------------------------------------------------------|
A|--0h2-------------0h2---------------0h2--------------------|
A|-----------------------------------------------------------|
D|--0h2---------4---0h2----------2----0h2s4---4-----------4--|
A|--------------4----------------2---------------------------|
D|-------4----------------2---------------0---------0--0-----|

but you always fear, leave you baron land to toil



D|-----------------------------------------------------------|
A|--0h2-------------0h2---------------0h2--------------------|
A|-----------------------------------------------------------|
D|--0h2---------4---0h2----------2----0h2s4---4-----------4--|
A|--------------4----------------2---------------------------|
D|-------4----------------2---------------0---------0--0-----|

oh i made my own damn choices, till the bite and all it's poison 
                                           as the ball and chain



D|-----------------------------------------------------------|
A|--0h2-------------0h2---------------0h2--------------------|
A|-----------------------------------------------------------|
D|--0h2---------4---0h2----------2----0h2s4---4-----4-----4--|
A|--------------4----------------2---------------------------|
D|-------4----------------2---------------0------0-----0-----|

and now i came to be a man, not without my fathers hand without 
                                your views that they'll bring



D|-------------------------------------------------4s7-7s9---|
A|--0h2------------0h2------------0h2------------------------|
A|-----------------------------------------------------------|
D|--0h2--------4---0h2--------2---0h2s4---4--------4s7-7s9---|
A|----------4--------------2---------------------------------|
D|-------4--------------2-------------0---------0------------|




D|-----------------------------------------------------------|
A|--0h2------------0h2-------------0h2-----------------------|
A|-----------------------------------------------------------|
D|--0h2--------4---0h2--------2----0h2s4----4---------4------|
A|----------4--------------2---------------------------------|
D|-------4--------------2--------------0--------0--0---------|




D|-----------------------------------------------------------|
A|-----------------------------------------------------------|
A|-----------------------------------------------------------|
D|--------------------------------------0--------------------|
A|-----------------------------------9--------9s7--7s5p0-----|
D|--0--7------------11---------------0-----0-----------------|
 
  white light don't break her heart anymore      



D|-----------------------------------------------------------|
A|-------7--7----------11--11-----------9------9s7--7s5p0----|
A|----------0---------------0--------------------------------|
D|----------7--------------11--------------------------------|
A|----------x---------------x--------0---------9s7--7s5p0----|
D|-0--7-----7---7-7s11-----11----11--0------0----------------|

  bright light don't seem to bother her at all



D|---------------------------------------------------------0-|
A|----------0---------------------------9------9s7--7s5p0--0-|
A|----------0----------------------------------------------0-|
D|-------7--7--------------11------------------------------0-|
A|-------7--7--------------11--------0---------9s7--7s5p0--0-|
D|-0--7-----7---7-7s11-----------11--0------0--------------0-|

  white light don't break her heart anymore



D|-----------------------------------------------------------|
A|-------7--7----------11---------------9--------------------|
A|----------0------------------------------------------------|
D|----------7------------------------------------------------|
A|----------x------------------------0------------9----------|
D|-0--7-----7----7--11-----------11--0------0--0-------------|

  bright light don't seem to bother her at all



D|-----------------------------------------------------------|
A|-----------------------------------------------------------|
A|-----------------------------------------------------------|
D|--------------9-----------7--------------4-------------2---|
A|--------------9-----------7--------------4-------------2---|
D|-------0--9--------9--7-----------7--4----------4--2-------|

  but all is well, all is good, the crows of eden which your 
                                        blackbird never could  



D|-----------------------------------------------------------|
A|-----------------------------------------------------------|
A|-----------------------------------------------------------|
D|-----------4---------------4------------4----4-------4-----|
A|-----------------------------------------------------------|
D|--2--0-----------0---0---------0---0-------------0---------|

 like you said they would



D|---------------------------------------0-------------------|
A|---------------------------------------0-------------------|
A|---------------------------------------0-------------------|
D|-------4------------2--------------7---7-------------------|
A|-------4------------2--------------7---7-----7s9--9--------|
D|-0-4----------4-2----------2-2s7-------7--7--0-------------|

    like you said they would x3



D|-----------------------0---------------0-------------0-----|
A|-----------------------0---------------0-------------0-----|
A|-----------------------0---------------0-------------0-----|
D|-------4------------2--2-----------7---7-------------0-----|
A|-------4------------2--2-----------7---7-----7s9--9--9-----|
D|-0-4----------4-2------2---2-2s7-------7--7--0-------0-----|

    like you said they would x3



D|---------0-------------0--------------0--------------0-----|
A|---------0-------------0--------------0--------------0-----|
A|---------0-------------0--------------0--------------0-----|
D|-----4---4---------2---2----------7---7--------------0-----|
A|-----4---4---------2---2----------7---7-----7s9--9---9-----|
D|--4------4---4-2-------2--2-2s7-------7--7--0--------0-----|

    like you said they would x3



D|---------0-------------0--------------0--------------0-----|
A|---------0-------------0--------------0--------------0-----|
A|---------0-------------0--------------0--------------0-----|
D|-----4---4---------2---2----------7---7--------------0-----|
A|-----4---4---------2---2----------7---7-----7s9--9---9-----|
D|--4------4---4-2-------2--2-2s7-------7--7--0--------0-----|

    like you said they would x3



D|---------0-------------0--------------0--------------0-----|
A|---------0-------------0--------------0--------------0-----|
A|---------0-------------0--------------0--------------0-----|
D|-----4---4---------2---2----------7---7--------------0-----|
A|-----4---4---------2---2----------7---7-----7s9--9---9-----|
D|--4------4---4-2-------2--2-2s7-------7--7--0--------0-----|

     like you said they would x3



D|---------0--------------0----------------------------0-----|
A|---------0--------------0----------------------------0-----|
A|---------0--------------0----------------------------0-----|
D|-----4---4----------2---2-----------9------------9---9-----|
A|-----4---4----------2---2-----------9------------9---9-----|
D|--4------4----4-2-------2---2-2s9---------9--9-------9-----|

     like you said they would x3



D|-----------------------------------------------------------|
A|-----4---4--------2---2----------7---0--7s9---9---9--------|
A|---------0------------0------------5--------------0--------|
D|---------0------------0---------------------------0--------|
A|---------4------------2-------7-----------9-------9--------|
D|--4------4-----2------2---2s7-------------0-------0--------|




D|-----------------------------------------------------------|
A|--------------0------------------0-------------------------|
A|--------------0------------------0------------7------------|
D|-------0------0-----------2------2---------------7-----7---|
A|----4-----4---4--------2-----2---2---------7--------7------|
D|-4------------4---4-2------------2--2-2s7------------------|




D|-----------------------------------------------------------|
A|-----------------------------------------------------------|
A|-----------------------------------------------------------|
D|--7s9---9---7---4---2--------------------------------------|
A|-----------------------------------------------------------|
D|--0----------------------------7-----------------11--------|

                         white light don't break her heart 



D|-----------------------------------------------------------|
A|-----------------------------------------------------------|
A|-----------------------------------------------------------|
D|------------------------------------------7----------------|
A|---9----------9s7--7s5p0------------------7----------------|
D|---0-------0--------------------------7--------------------|

  anymore                     bright light don't seem to 



D|-----------------------------------------------------------|
A|-----------------------------------------------------------|
A|-----------------------------------------------------------|
D|-----------------------------------------------------------|
A|---------------9--------9s7--7s5p0-------------------------|
D|---11----------0-----0--------------------------7----------|

   bother her at all                       white light don't



D|-----------------------------------------------------------|
A|-----------------------------------------------------------|
A|-----------------------------------------------------------|
D|-----------------------------------------------------------|
A|---------------------9-------9s7--7s5p0----------7---------|
D|-----------11--------0----0----------------------7---------|

   break her heart anymore                 bright light



D|-----------------------------------------------------------|
A|-------------------------------------------------<7>-------|
A|-------------------------------------------------<7>-------|
D|----------------------------------0------------------------|
A|-----------------4-----------2---------------0-------------|
D|-----------------4-----------2---------0-------------------|

   don't seem to bother her anymore





tabbed by d4vef@hotmail.co.uk
Tap to rate this tab
# A B C D E F G H I J K L M N O P Q R S T U V W X Y Z