Song name
# A B C D E F G H I J K L M N O P Q R S T U V W X Y Z

Ben Howard - Only Love tab

---------------------------------------------------------------------------
                             ONLY LOVE - Ben Howard
---------------------------------------------------------------------------
Tabbed by: Chelsie Lawsen
E-mail:

This is my absolute favourite song in the world so I thought I would have a go tabbing it, enjoy!

Tuning: A# F C G G C capo on 3

INTRO

e|----------------------------------12-12--------12-12--------------------|
B|------------------------------------------------------------------------|
G|-------5\0-2p---------5\0-2p--------------------------------------------|
D|--5-5-----------5-5------------9-9----------9-9-------------------------|
A|------------------------------------------------------------------------|
E|--4-4-----------4-4------------7-7--------7---7-------------------------|

e|-----------------------------------0--0----0--------0--0----------------|
B|-----------------------------------0-------0--------0-------0-----------|
G|-------5\0-2p-------5\0-2p---------0----0--0--------0----0--------------|
D|-5-5-----------5-5--------------9--9-------9-----9--9-------9-----------|
A|-----------------------------------0-------0--------0-------0-----------|
E|-4-4-----------4-4------------7----7-------7---7----7-------7-----------|

VERSE 

e|----------------------------------12-12--------12-12--------------------|
B|------------------------------------------------------------------------|
G|-------5\0-2p--------5\0-2p---------------------------------------------|
D|--5-5-----------5-5------------9-9----------9-9-------------------------|
A|------------------------------------------------------------------------|
E|--4-4-----------4-4------------7-7--------7---7-------------------------| x4

FILL (no lyrics)

e|----------------------------------12-12--------12-12--------------------|
B|------------------------------------------------------------------------|
G|-------5\0-2p--------5\0-2p---------------------------------------------|
D|--5-5-----------5-5------------9-9----------9-9-------------------------|
A|------------------------------------------------------------------------|
E|--4-4-----------4-4------------7-7--------7---7-------------------------|

e|-----------------------------------0--0----0--------0--0----0-----------|
B|-----------------------------------0-------0--------0-------0-----------|
G|------5\0-2p--------5\0-2p---------0----0--0--------0----0--0-----------|
D|-5-5-----------5-5--------------9--9-------9-----9--9-------9-----------|
A|-----------------------------------0-------0--------0-------0-----------|
E|-4-4-----------5-5------------7----7-------7---7----7-------7-----------|

CHORUS

e|------------------------------------------------------------------------|
B|------------------------------------------------------------------------|
G|------------------------------------------------------------------------|
D|--5--4---9---12\9--9--12\9--9----5--4---9------12---12---12---12--------|
A|-----------------------------------------------12---12---12---12--------|
E|--4--2---7-----------------------4--2---7-----0----0----0----0----------|


e|------------------------------------------------------------------------|
B|------------------------------------------------------------------------|
G|------------------------------------------------------------------------|
D|--5--4---9------12---12---12---12---12---12---12---12-------------------|
A|----------------12---12---12---12---12---12---12---12-------------------|
E|--4--2---7-----0----0----0----0----0----0----0----0---------------------|

VERSE

e|----------------------------------12-12--------12-12--------------------|
B|------------------------------------------------------------------------|
G|------------------------------------------------------------------------|
D|--5-5--------------------------9-9----------9-9-------------------------|
A|------------------------------------------------------------------------|
E|--4-4--------------------------7-7--------7---7-------------------------|

e|----------------------------------12-12--------12-12--------------------|
B|------------------------------------------------------------------------|
G|-------5\0-2p--------5\0-2p---------------------------------------------|
D|--5-5-----------5-5------------9-9----------9-9-------------------------|
A|------------------------------------------------------------------------|
E|--4-4-----------4-4------------7-7--------7---7-------------------------| x3

FILL (no lyrics)

e|----------------------------------12-12--------12-12--------------------|
B|------------------------------------------------------------------------|
G|-------5\0-2p--------5\0-2p---------------------------------------------|
D|--5-5-----------5-5------------9-9----------9-9-------------------------|
A|------------------------------------------------------------------------|
E|--4-4-----------4-4------------7-7--------7---7-------------------------|

e|-----------------------------------0--0----0--------0--0----0-----------|
B|-----------------------------------0-------0--------0-------0-----------|
G|------5\0-2p--------5\0-2p---------0----0--0--------0----0--0-----------|
D|-5-5-----------5-5--------------9--9-------9-----9--9-------9-----------|
A|-----------------------------------0-------0--------0-------0-----------|
E|-4-4-----------5-5------------7----7-------7---7----7-------7-----------|

CHORUS

e|------------------------------------------------------------------------|
B|------------------------------------------------------------------------|
G|------------------------------------------------------------------------|
D|--5--4---9---12\9--9--12\9--9----5--4---9------12---12---12---12--------|
A|-----------------------------------------------12---12---12---12--------|
E|--4--2---7-----------------------4--2---7-----0----0----0----0----------|


e|------------------------------------------------------------------------|
B|------------------------------------------------------------------------|
G|------------------------------------------------------------------------|
D|--5--4---9------12---12---12---12---12---12---12---12-------------------|
A|----------------12---12---12---12---12---12---12---12-------------------|
E|--4--2---7-----0----0----0----0----0----0----0----0---------------------|

VERSE

e|------------------------------------------------------------------------|
B|------------------------------------------------------------------------|
G|------------------------------------------------------------------------|
D|--5----------------------------9----------------------------------------|
A|------------------------------------------------------------------------|
E|--4----------------------------7----------------------------------------|

e|------------------------------------------------------------------------|
B|------------------------------------------------------------------------|
G|------------------------------------------------------------------------|
D|--5----------------------------9----------------------------------------|
A|------------------------------------------------------------------------|
E|--4----------------------------7----------------------------------------|

e|------------------------------------------------------------------------|
B|------------------------------------------------------------------------|
G|------------------------------------------------------------------------|
D|--5----------------------------9----------------------------------------|
A|------------------------------------------------------------------------|
E|--4----------------------------7----------------------------------------|

e|------------------------------------------------------------------------|
B|------------------------------------------------------------------------|
G|------------------------------------------------------------------------|
D|--5----------------------------9999999999999999-------------------------|
A|------------------------------------------------------------------------|
E|--4----------------------------7777777777777777-------------------------|

e|------------------------------------------------------------------------|
B|------------------------------------------------------------------------|
G|------------------------------------------------------------------------|
D|--5555555555555555-------------9999999999999999-------------------------|
A|------------------------------------------------------------------------|
E|--4444444444444444-------------7777777777777777-------------------------|


************************************

| /   slide up
| \   slide down
| h   hammer-on
| p   pull-off
| ~   vibrato
| +   harmonic
| x   Mute note
| b   Bend
| pb  Pre-bend
| br  Bend release
| pbr Pre-bend release
| brb Bend release bend

************************************
Tap to rate this tab
 
# A B C D E F G H I J K L M N O P Q R S T U V W X Y Z