Song name
# A B C D E F G H I J K L M N O P Q R S T U V W X Y Z

Ben Hull - For The Last Time tab

     E  E  E  E  E  E     E  E  E  E  E  E     E  E  E  E  E  E   
E||--------------------|--------------------|--------------------|
B||--1-----L--1-----L--|--1-----L--1-----L--|--3-----L--3-----L--|
G||--------0--------0--|--------0--------0--|--------0--------0--|
D||-----2--------2-----|-----2--------2-----|-----2--------2-----|
A||--3--------3--------|--3--------3--------|--3--------3--------|
E||--------------------|--------------------|--------------------|


  E  E  E  E  E  E     E  E  E  E  E  E     E  E  E  E  E  E   
--------------------|--------------------|--------------------|
--3-----L--3-----L--|--0-----L--0-----L--|--0-----L--0-----L--|
--------0--------0--|--------0--------0--|--------0--------0--|
-----2--------2-----|-----2--------2-----|-----2--------2-----|
--3--------3--------|--3--------3--------|--3--------3--------|
--------------------|--------------------|--------------------|


  E  E  E  E  E  E     E  E  E  E  E  E     E  E  E  E  E  E   
--------------------|--------------------|--0--------------L--|
--1-----L--1-----L--|--1-----L--1-----L--|--------------------|
--------0--------0--|--------0--------0--|--------0--------0--|
-----2--------2-----|-----2--------2-----|--2--------2--------|
--3--------3--------|--3--------3--------|-----3--------3-----|
--------------------|--------------------|--------------------|


  E  E  E  E  E  E     E  E  E  E  E  E     E  E  E  E  E  E   
--1--L--0--L--------|--------------------|--------------0--L--|
--------------3--L--|--1--------------L--|--1--L--3--L--------|
-----------------0--|--L--------0--------|--------------------|
-----------2-----L--|--------2--L-----2--|--------------2--L--|
-----3-----------L--|-----3-----L--3--L--|--3--------L--------|
--------------------|--------------------|--------------------|


  E  E  E  E  E  E     E  E  E  E  E  E     E  E  E  E  E  E   
--------------------|--1--L--0--L--------|--------------------|
--3--------------L--|--------------3--1--|-----------------L--|
--0-----L--0-----0--|-----0--------------|--------0--------0--|
-----2--2-----2-----|--2-----------------|-----2--------2-----|
--------------------|--------3--L--------|--3--------3--------|
--------------------|--------------------|--------------------|


  E  E  E  E  E  E     E  E  E  E  E  E     E  E  E  E  E  E   
--3--L--1--L--0--L--|--1--------------L--|--1--L--1--L--3--5--|
-----------------1--|--------------------|--------------------|
-----0--L-----------|--0--------0-----0--|--------------------|
-----------0-----L--|-----2--2-----2-----|-----------------3--|
--------------------|--------------------|-----3-----3--------|
--------------------|--------------------|--------------------|


  E  E  E  E  E  E     E  E  E  E  E  E     E  E  E  E  E  E   
--3--------------L--|--1--L--0--L--------|--------------------|
--------------------|--------------3--1--|--------L-----------|
--0--------0-----0--|-----0--------------|--------0--------0--|
-----2--2-----2-----|--2-----------------|-----2--------2-----|
--------------------|--------3--L--------|--3--------3--------|
--------------------|--------------------|--------------------|


  E  E  E  E  E  E     E  E  E  E  E  E     E  E  E  E  E  E   
--3--L--1--L--0--L--|--1--------------L--|--1--L--0--L--------|
-----------------1--|--------------------|--------------3--1--|
-----0--L-----------|--0--------0-----0--|-----0--------------|
-----------0-----L--|-----2--2-----2-----|--2-----------------|
--------------------|--------------------|--------3--L--------|
--------------------|--------------------|--------------------|


    E  E  E  E  E  E     E  E  E  E  E  E     E  E  E  E  E  E   
|---------------------|--------------------|--1-----L--1-----L--|
|---1-----L--1-----L--|--1-----L--1-----L--|--------------------|
|*--0-----L--0-----L--|--0-----L--0-----L--|--------------------|
|*--2-----L--2-----L--|--2-----L--2-----L--|--2-----L--2-----L--|
|---3--3--3--3--3--3--|--3--3--3--3--3--3--|--3--3--3--3--3--3--|
|---------------------|--------------------|--------------------|


  E  E  E  E  E  E     E  E  E  E  E  E     E  E  E  E  E  E   
--1-----L--1-----L--|--------------------|--------------------|
--------------------|--3-----L--3-----L--|--3-----L--3-----L--|
--------------------|--0-----L--0-----L--|--0-----L--0-----L--|
--2-----L--2-----L--|--2-----L--2-----L--|--2-----L--2-----L--|
--3--3--3--3--3--3--|--3--3--3--3--3--3--|--3--3--3--3--3--3--|
--------------------|--------------------|--------------------|


  E  E  E  E  E  E     E  E  E  E  E  E        E  E  E  E  E  E   
--------------------|---------------------||---------7--------7--|
--1-----L--1-----L--|--1-----L--1-----L---||------7--------7-----|
--0-----L--0-----L--|--0-----L--0-----L--*||*--6--------6--------|
--2-----L--2-----L--|--2-----L--2-----L--*||*--------------------|
--3--3--3--3--3--3--|--3--3--3--3--3--3---||---------------------|
--------------------|---------------------||---------------------|


  E  E  E  E  E  E     E  E  E  E  E  E     E  E  E  E  E  E   
--------7--------7--|--------9--------9--|--------9--------9--|
-----7--------7-----|-----7--------7-----|-----7--------7-----|
--6--------6--------|--6--------6--------|--6--------6--------|
--------------------|--------------------|--------------------|
--------------------|--------------------|--------------------|
--------------------|--------------------|--------------------|


  E  E  E  E  E  E     E  E  E  E  E  E     E  E  E  E  E  E   
--------6--------6--|--------6--------6--|--------7--------7--|
-----7--------7-----|-----7--------7-----|-----7--------7-----|
--6--------6--------|--6--------6--------|--6--------6--------|
--------------------|--------------------|--------------------|
--------------------|--------------------|--------------------|
--------------------|--------------------|--------------------|


  E  E  E  E  E  E       E  E  E  E  E  E     E  E  E  E  E  E   
--------7--------7---||--0--------------L--|--1--L--0--L--------|
-----7--------7------||--------------------|--------------3--L--|
--6--------6--------*||--------0--------0--|-----------------0--|
--------------------*||--2--------2--------|-----------2-----L--|
---------------------||-----3--------3-----|-----3-----------L--|
---------------------||--------------------|--------------------|


  E  E  E  E  E  E     E  E  E  E  E  E     E  E  E  E  E  E   
--------------------|--------------0--L--|--------------------|
--1--------------L--|--1--L--3--L--------|--3--------------L--|
--L--------0--------|--------------------|--0-----L--0-----0--|
--------2--L-----2--|--------------2--L--|-----2--2-----2-----|
-----3-----L--3--L--|--3--------L--------|--------------------|
--------------------|--------------------|--------------------|


  E  E  E  E  E  E     E  E  E  E  E  E     E  E  E  E  E  E   
--1--L--0--L--------|--------------------|--3--L--1--L--0--L--|
--------------3--1--|-----------------L--|-----------------1--|
-----0--------------|--------0--------0--|-----0--L-----------|
--2-----------------|-----2--------2-----|-----------0-----L--|
--------3--L--------|--3--------3--------|--------------------|
--------------------|--------------------|--------------------|


  E  E  E  E  E  E     E  E  E  E  E  E     E  E  E  E  E  E   
--1--------------L--|--1--L--1--L--3--5--|--3--------------L--|
--------------------|--------------------|--------------------|
--0--------0-----0--|--------------------|--0--------0-----0--|
-----2--2-----2-----|-----------------3--|-----2--2-----2-----|
--------------------|-----3-----3--------|--------------------|
--------------------|--------------------|--------------------|


  E  E  E  E  E  E     E  E  E  E  E  E     E  E  E  E  E  E   
--1--L--0--L--------|--------------------|--3--L--1--L--0--L--|
--------------3--1--|--------L-----------|-----------------1--|
-----0--------------|--------0--------0--|-----0--L-----------|
--2-----------------|-----2--------2-----|-----------0-----L--|
--------3--L--------|--3--------3--------|--------------------|
--------------------|--------------------|--------------------|


  E  E  E  E  E  E     E  E  E  E  E  E       E  E  E  E  E  E   
--1--------------L--|--1--L--0--L--------||---------------------|
--------------------|--------------3--1--||---1-----L--1-----L--|
--0--------0-----0--|-----0--------------||*--0-----L--0-----L--|
-----2--2-----2-----|--2-----------------||*--2-----L--2-----L--|
--------------------|--------3--L--------||---3--3--3--3--3--3--|
--------------------|--------------------||---------------------|


  E  E  E  E  E  E     E  E  E  E  E  E     E  E  E  E  E  E   
--------------------|--1-----L--1-----L--|--1-----L--1-----L--|
--1-----L--1-----L--|--------------------|--------------------|
--0-----L--0-----L--|--------------------|--------------------|
--2-----L--2-----L--|--2-----L--2-----L--|--2-----L--2-----L--|
--3--3--3--3--3--3--|--3--3--3--3--3--3--|--3--3--3--3--3--3--|
--------------------|--------------------|--------------------|


  E  E  E  E  E  E     E  E  E  E  E  E     E  E  E  E  E  E   
--------------------|--------------------|--------------------|
--3-----L--3-----L--|--3-----L--3-----L--|--1-----L--1-----L--|
--0-----L--0-----L--|--0-----L--0-----L--|--0-----L--0-----L--|
--2-----L--2-----L--|--2-----L--2-----L--|--2-----L--2-----L--|
--3--3--3--3--3--3--|--3--3--3--3--3--3--|--3--3--3--3--3--3--|
--------------------|--------------------|--------------------|


  E  E  E  E  E  E       E  E  E  E  E  E     E  E  E  E  E  E   
---------------------||--0--------------L--|--1--L--0--L--------|
--1-----L--1-----L---||--------------------|--------------3--L--|
--0-----L--0-----L--*||--------0--------0--|-----------------0--|
--2-----L--2-----L--*||--2--------2--------|-----------2-----L--|
--3--3--3--3--3--3---||-----3--------3-----|-----3-----------L--|
---------------------||--------------------|--------------------|


  E  E  E  E  E  E     E  E  E  E  E  E     E  E  E  E  E  E   
--------------------|--------------0--L--|--------------------|
--1--------------L--|--1--L--3--L--------|--3--------------L--|
--L--------0--------|--------------------|--0-----L--0-----0--|
--------2--L-----2--|--------------2--L--|-----2--2-----2-----|
-----3-----L--3--L--|--3--------L--------|--------------------|
--------------------|--------------------|--------------------|


  E  E  E  E  E  E     E  E  E  E  E  E     E  E  E  E  E  E   
--1--L--0--L--------|--------------------|--3--L--1--L--0--L--|
--------------3--1--|-----------------L--|-----------------1--|
-----0--------------|--------0--------0--|-----0--L-----------|
--2-----------------|-----2--------2-----|-----------0-----L--|
--------3--L--------|--3--------3--------|--------------------|
--------------------|--------------------|--------------------|


  E  E  E  E  E  E     E  E  E  E  E  E     E  E  E  E  E  E   
--1--------------L--|--1--L--1--L--3--5--|--3--------------L--|
--------------------|--------------------|--------------------|
--0--------0-----0--|--------------------|--0--------0-----0--|
-----2--2-----2-----|-----------------3--|-----2--2-----2-----|
--------------------|-----3-----3--------|--------------------|
--------------------|--------------------|--------------------|


  E  E  E  E  E  E     E  E  E  E  E  E     E  E  E  E  E  E   
--1--L--0--L--------|--------------------|--3--L--1--L--0--L--|
--------------3--1--|--------L-----------|-----------------1--|
-----0--------------|--------0--------0--|-----0--L-----------|
--2-----------------|-----2--------2-----|-----------0-----L--|
--------3--L--------|--3--------3--------|--------------------|
--------------------|--------------------|--------------------|


  E  E  E  E  E  E     E  E  E  E  E  E       E  E  E  E  E  E   
--1--------------L--|--1--L--0--L--------||---------------------|
--------------------|--------------3--1--||---1-----L--1-----L--|
--0--------0-----0--|-----0--------------||*--0-----L--0-----L--|
-----2--2-----2-----|--2-----------------||*--2-----L--2-----L--|
--------------------|--------3--L--------||---3--3--3--3--3--3--|
--------------------|--------------------||---------------------|


  E  E  E  E  E  E     E  E  E  E  E  E     E  E  E  E  E  E   
--------------------|--1-----L--1-----L--|--1-----L--1-----L--|
--1-----L--1-----L--|--------------------|--------------------|
--0-----L--0-----L--|--------------------|--------------------|
--2-----L--2-----L--|--2-----L--2-----L--|--2-----L--2-----L--|
--3--3--3--3--3--3--|--3--3--3--3--3--3--|--3--3--3--3--3--3--|
--------------------|--------------------|--------------------|


  E  E  E  E  E  E     E  E  E  E  E  E     E  E  E  E  E  E   
--------------------|--------------------|--------------------|
--3-----L--3-----L--|--3-----L--3-----L--|--1-----L--1-----L--|
--0-----L--0-----L--|--0-----L--0-----L--|--0-----L--0-----L--|
--2-----L--2-----L--|--2-----L--2-----L--|--2-----L--2-----L--|
--3--3--3--3--3--3--|--3--3--3--3--3--3--|--3--3--3--3--3--3--|
--------------------|--------------------|--------------------|


  E  E  E  E  E  E       E  E  E  E  E  E     E  E  E  E  E  E   
---------------------||--0--------------L--|--1--L--0--L--------|
--1-----L--1-----L---||--------------------|--------------3--L--|
--0-----L--0-----L--*||--------0--------0--|-----------------0--|
--2-----L--2-----L--*||--2--------2--------|-----------2-----L--|
--3--3--3--3--3--3---||-----3--------3-----|-----3-----------L--|
---------------------||--------------------|--------------------|


  E  E  E  E  E  E     E  E  E  E  E  E     E  E  E  E  E  E   
--------------------|--------------0--L--|--------------------|
--1--------------L--|--1--L--3--L--------|--3--------------L--|
--L--------0--------|--------------------|--0-----L--0-----0--|
--------2--L-----2--|--------------2--L--|-----2--2-----2-----|
-----3-----L--3--L--|--3--------L--------|--------------------|
--------------------|--------------------|--------------------|


  E  E  E  E  E  E     E  E  E  E  E  E     E  E  E  E  E  E     H.            
--1--L--0--L--------|--------------------|--3--L--1--L--0--L--|---------------|
--------------3--1--|-----------------L--|-----------------1--|--L------------|
-----0--------------|--------0--------0--|-----0--L-----------|---------------|
--2-----------------|-----2--------2-----|-----------0-----L--|---------------|
--------3--L--------|--3--------3--------|--------------------|---------------|
--------------------|--------------------|--------------------|---------------|


-------------------||
-------------------||
-------------------||
-------------------||
-------------------||
-------------------||




Duration Legend
---------------
W - whole
H - half
Q - quarter
E - 8th
S - 16th
T - 32nd
X - 64th
. - note dotted
|-n-|  - n-tuplets


Tablature Legend
----------------
L - tied note
x - dead note
g - grace note
(n) - ghost note
> - accentuded note
NH - natural harmonic
AH - artificial harmonic
TH - tapped harmonic
SH - semi harmonic
PH - pitch harmonic
h - hammer on
p - pull off
b - bend
br - bendRelease
pb - preBend
pbr - preBendRelease
brb - bendReleaseBend
\n/ - tremolo bar dip
\n - tremolo bar dive
-/n - tremolo bar Release up
/n\ - tremolo bar inverted dip
/n - tremolo bar return
-\n - tremolo bar Release down
S - shift slide
s - legato slide
/ -  slide into from below or out of upwards
\ -  slide into from above or out of downwards
~ - vibrato
W - wide vibrato
tr - trill
TP - tremolo picking
T - tapping
S - slap
P - pop
< - fade in
^ - brush up
v - brush down
Tap to rate this tab
 
# A B C D E F G H I J K L M N O P Q R S T U V W X Y Z