Guitaretab - guitar tabs
Song name
# A B C D E F G H I J K L M N O P Q R S T U V W X Y Z

Ben Jelen - Christine tab

Sugarcult  Christine
Album: Wrap me up in plastic

Tune one step down: Eb Ab Db Gb Bb eb

Intro

|-8-8-8-8-8-8-8-8-8-8-8-8-8-8-8-8---------|
|-9-9-9-9-8-8-8-8-9-9-9-9-8-8-8-8---------|
|-----------------------------------------|
|-----------------------------------------|
|-----------------------------------------|
|-----------------------------------------|

Vers:

|--8--8--8--8--8--8--8--8--8--8--8--8--8--8--8--8----|
|--9--9--9--9--8--8--8--8--9--9--9--9--8--8--8--8----|
|----------------------------------------------------|   x1
|----------------------------------------------------|
|----------------------------------------------------|
|----------------------------------------------------|

Then there is a part I cant get:
Make up and move on, our ways never change.

Chorus:
[ Tab from: http://www.guitaretab.com/b/ben-jelen/62333.html ]
|------------------------------------------------------------------|
|------------------------------------------------------------------|
|--10-----8------6-------4--4--------------------------------------|
|--10-----8------6-------4--4--------------------------------------| x4
|--8------6------4-------2--2--------------------------------------|
|------------------------------------------------------------------|
Part between ref and vers2 is played with some kind of an effect:

|9-13-18
|9-13-18
|-------|
|-------|
|-------|
|-------|

Vers2:

|--8--8--8--8--8--8--8--8--8--8--8--8--8--8--8--8----|
|--9--9--9--9--8--8--8--8--9--9--9--9--8--8--8--8----|
|----------------------------------------------------|   x1
|----------------------------------------------------|
|----------------------------------------------------|
|----------------------------------------------------|

Chorus:

|------------------------------------------------------------------|
|------------------------------------------------------------------|
|--10-----8------6-------4--4--------------------------------------|
|--10-----8------6-------4--4--------------------------------------| x4
|--8------6------4-------2--2--------------------------------------|
|------------------------------------------------------------------|

Then there is some kind of solo when he sings take it away, I cant figure it out but its 
lot of effects there I think.

Then there is a part where you just mute

Then you can end with the chorus.

This is my first tab ever, so its not perfect but its ok, hope you liked it!
Related for Christine tab