Guitaretab - guitar tabs
Song name
# A B C D E F G H I J K L M N O P Q R S T U V W X Y Z

Ben Kenney - Creme tab

-----------------------------------------------------------------------------
			     Creme  Ben Kenney
-----------------------------------------------------------------------------
Tabbed by: Niscimble
Email: peteypablo2131@yahoo.com

Tuning: Standard

Verse

e|-------------------------------------------------------------------|
B|-------------------------------------------------------------------|
G|-------------------------------------------------------------------|
D|-------------------------------------------------------------------|
A|------------5-7-----------5-7-------------6-7-----------6-7--------|
E|--3-3-3/7-7-----0-3-3-3/7-----0-4-4-4/7-7-----0-4-4-4/7-----0------|

Chorus

E||---------------------------------------------------------------------------------|
B||----------4--------------7---------------------10-------------------10-----------|
G||------4-----4-------7------7-------------10-------10----------10-------10--------|
D||----4---4---------7---7------7--------10----10-------10----10----10-------10-----|
A||--7------------10--------------10--13-------------------13-------------------13--|
E||---------------------------------------------------------------------------------|
[ Tab from: http://www.guitaretab.com/b/ben-kenney/116117.html ]
E||---------------------------------------------------------------------------------|
B||----------5--------------8---------------------11-------------------11-----------|
G||------5-----5-------8------8-------------11-------11----------11-------11--------|
D||----5---5---------8---8------8--------11----11-------11----11----11-------11-----|
A||--8------------11--------------11--14-------------------14-------------------14--|
E||---------------------------------------------------------------------------------|

E||---------------------------------------------------------------------------------|
B||----------6--------------9-----------------4-------------4-----------------------|
G||------6-----6-------9------9-----------4-----4-------4-----4---------------------|
D||----6---6---------9---9------9-------4---4-----4---4---4-----4-------------------|
A||--9------------12--------------12--7-------------7-------------7-----------------|
E||---------------------------------------------------------------------------------|


| /  slide up
| \  slide down
| h  hammer-on
| p  pull-off
| ~  vibrato
| +  harmonic
| x  Mute note
=============================================================================


Related for Creme tab