Song name
# A B C D E F G H I J K L M N O P Q R S T U V W X Y Z

Ben Kenney - Hoopdie tab

Help us improve GuitareTab! Take a short survey!
----------------------------------------------------------------------------
			     HOOPDIE - Ben Kenney
----------------------------------------------------------------------------
Tabbed by: Niscimble
Email: peteypablo2131@yahoo.com

Tuning: Standard


Verse

e|-------------------------------------------------------------------------|
B|-------------------------------------------------------------------------|
G|--7-7-7------------------------------------------------------------------|
D|--9-9-7-7-7-7-7-7-7-7-7-7-7-7-7---4-4-----------4-4--7/9--9\7------------|
A|--------9-9-9-9-7-9-9-7-5-5-5-5-0-2-2-0-5-5-5-0-2-2--5/7--7\5------------|
E|----------------------------------------3-3-3----------------------------|


Pre-Chorus

e|------------------------------|
B|------------------------------|
G|------------------------------|
D|----------7-7-7-7-7-7-7-7-----|
A|--7-7-7-5-4-4-4-4-5-5-5-5-----|
E|------------------------------|


Chorus

e|-------------------------------------------------------------------------|
B|---------4--------------5---------------5-4-----------7------------------|
G|------4----4---------4-----4---------4-------4------4---4---4------------|
D|----4----------4---4---------4-----4--------------6-------6--------------|
A|--6--------------5------------------------------7------------------------|
E|--------------------------------5----------------------------------------|


Verse (4x)
Pre-Chorus (4x)
Verse (4x)
Pre-Chorus (8x)
Chorus (4x)
Verse (4x)
Pre-Chorus (8x)
Chorus (12x)


| /  slide up
| \  slide down
| h  hammer-on
| p  pull-off
| ~  vibrato
| +  harmonic
| x  Mute note
============================================================================
Related for Hoopdie tab